  0
SECTION
  2
HEADER
  9
$ACADVER
  1
AC1015
  9
$ACADMAINTVER
 70
     6
  9
$DWGCODEPAGE
  3
ANSI_1254
  9
$INSBASE
 10
0.0
 20
0.0
 30
0.0
  9
$EXTMIN
 10
0.0
 20
0.0
 30
0.0
  9
$EXTMAX
 10
279.4
 20
215.9
 30
0.0
  9
$LIMMIN
 10
0.0
 20
0.0
  9
$LIMMAX
 10
279.4
 20
215.9
  9
$ORTHOMODE
 70
     0
  9
$REGENMODE
 70
     1
  9
$FILLMODE
 70
     1
  9
$QTEXTMODE
 70
     0
  9
$MIRRTEXT
 70
     1
  9
$LTSCALE
 40
1.0
  9
$ATTMODE
 70
     1
  9
$TEXTSIZE
 40
3.5
  9
$TRACEWID
 40
1.0
  9
$TEXTSTYLE
  7
Standard
  9
$CLAYER
  8
0
  9
$CELTYPE
  6
ByLayer
  9
$CECOLOR
 62
   256
  9
$CELTSCALE
 40
1.0
  9
$DISPSILH
 70
     0
  9
$DIMSCALE
 40
1.0
  9
$DIMASZ
 40
3.5
  9
$DIMEXO
 40
1.0
  9
$DIMDLI
 40
3.75
  9
$DIMRND
 40
0.0
  9
$DIMDLE
 40
0.0
  9
$DIMEXE
 40
1.0
  9
$DIMTP
 40
0.0
  9
$DIMTM
 40
0.0
  9
$DIMTXT
 40
3.5
  9
$DIMCEN
 40
2.5
  9
$DIMTSZ
 40
0.0
  9
$DIMTOL
 70
     0
  9
$DIMLIM
 70
     0
  9
$DIMTIH
 70
     1
  9
$DIMTOH
 70
     1
  9
$DIMSE1
 70
     0
  9
$DIMSE2
 70
     0
  9
$DIMTAD
 70
     1
  9
$DIMZIN
 70
     0
  9
$DIMBLK
  1

  9
$DIMASO
 70
     1
  9
$DIMSHO
 70
     1
  9
$DIMPOST
  1

  9
$DIMAPOST
  1

  9
$DIMALT
 70
     0
  9
$DIMALTD
 70
     3
  9
$DIMALTF
 40
0.0393700787
  9
$DIMLFAC
 40
1.0
  9
$DIMTOFL
 70
     1
  9
$DIMTVP
 40
0.0
  9
$DIMTIX
 70
     0
  9
$DIMSOXD
 70
     0
  9
$DIMSAH
 70
     0
  9
$DIMBLK1
  1

  9
$DIMBLK2
  1

  9
$DIMSTYLE
  2
ISO-25
  9
$DIMCLRD
 70
     0
  9
$DIMCLRE
 70
     0
  9
$DIMCLRT
 70
     0
  9
$DIMTFAC
 40
1.0
  9
$DIMGAP
 40
1.524
  9
$DIMJUST
 70
     0
  9
$DIMSD1
 70
     0
  9
$DIMSD2
 70
     0
  9
$DIMTOLJ
 70
     0
  9
$DIMTZIN
 70
     0
  9
$DIMALTZ
 70
     0
  9
$DIMALTTZ
 70
     0
  9
$DIMUPT
 70
     0
  9
$DIMDEC
 70
     2
  9
$DIMTDEC
 70
     2
  9
$DIMALTU
 70
     2
  9
$DIMALTTD
 70
     3
  9
$DIMTXSTY
  7
Standard
  9
$DIMAUNIT
 70
     0
  9
$DIMADEC
 70
     2
  9
$DIMALTRND
 40
0.0
  9
$DIMAZIN
 70
     0
  9
$DIMDSEP
 70
    44
  9
$DIMATFIT
 70
     3
  9
$DIMFRAC
 70
     0
  9
$DIMLDRBLK
  1

  9
$DIMLUNIT
 70
     2
  9
$DIMLWD
 70
    -2
  9
$DIMLWE
 70
    -2
  9
$DIMTMOVE
 70
     0
  9
$LUNITS
 70
     2
  9
$LUPREC
 70
     2
  9
$SKETCHINC
 40
1.0
  9
$FILLETRAD
 40
10.0
  9
$AUNITS
 70
     0
  9
$AUPREC
 70
     2
  9
$MENU
  1
.
  9
$ELEVATION
 40
0.0
  9
$PELEVATION
 40
0.0
  9
$THICKNESS
 40
0.0
  9
$LIMCHECK
 70
     0
  9
$CHAMFERA
 40
0.0
  9
$CHAMFERB
 40
0.0
  9
$CHAMFERC
 40
0.0
  9
$CHAMFERD
 40
0.0
  9
$SKPOLY
 70
     0
  9
$TDCREATE
 40
2459935.709194132
  9
$TDUCREATE
 40
2459935.584194132
  9
$TDUPDATE
 40
2459935.709194317
  9
$TDUUPDATE
 40
2459935.584194317
  9
$TDINDWG
 40
0.0000000116
  9
$TDUSRTIMER
 40
0.0000000116
  9
$USRTIMER
 70
     1
  9
$ANGBASE
 50
0.0
  9
$ANGDIR
 70
     0
  9
$PDMODE
 70
     0
  9
$PDSIZE
 40
-1.0
  9
$PLINEWID
 40
0.0
  9
$SPLFRAME
 70
     0
  9
$SPLINETYPE
 70
     6
  9
$SPLINESEGS
 70
     8
  9
$HANDSEED
  5
14F
  9
$SURFTAB1
 70
     6
  9
$SURFTAB2
 70
     6
  9
$SURFTYPE
 70
     6
  9
$SURFU
 70
     6
  9
$SURFV
 70
     6
  9
$UCSBASE
  2

  9
$UCSNAME
  2

  9
$UCSORG
 10
0.0
 20
0.0
 30
0.0
  9
$UCSXDIR
 10
1.0
 20
0.0
 30
0.0
  9
$UCSYDIR
 10
0.0
 20
1.0
 30
0.0
  9
$UCSORTHOREF
  2

  9
$UCSORTHOVIEW
 70
     0
  9
$UCSORGTOP
 10
0.0
 20
0.0
 30
0.0
  9
$UCSORGBOTTOM
 10
0.0
 20
0.0
 30
0.0
  9
$UCSORGLEFT
 10
0.0
 20
0.0
 30
0.0
  9
$UCSORGRIGHT
 10
0.0
 20
0.0
 30
0.0
  9
$UCSORGFRONT
 10
0.0
 20
0.0
 30
0.0
  9
$UCSORGBACK
 10
0.0
 20
0.0
 30
0.0
  9
$PUCSBASE
  2

  9
$PUCSNAME
  2

  9
$PUCSORG
 10
0.0
 20
0.0
 30
0.0
  9
$PUCSXDIR
 10
1.0
 20
0.0
 30
0.0
  9
$PUCSYDIR
 10
0.0
 20
1.0
 30
0.0
  9
$PUCSORTHOREF
  2

  9
$PUCSORTHOVIEW
 70
     0
  9
$PUCSORGTOP
 10
0.0
 20
0.0
 30
0.0
  9
$PUCSORGBOTTOM
 10
0.0
 20
0.0
 30
0.0
  9
$PUCSORGLEFT
 10
0.0
 20
0.0
 30
0.0
  9
$PUCSORGRIGHT
 10
0.0
 20
0.0
 30
0.0
  9
$PUCSORGFRONT
 10
0.0
 20
0.0
 30
0.0
  9
$PUCSORGBACK
 10
0.0
 20
0.0
 30
0.0
  9
$USERI1
 70
     0
  9
$USERI2
 70
     0
  9
$USERI3
 70
     0
  9
$USERI4
 70
     0
  9
$USERI5
 70
     0
  9
$USERR1
 40
0.0
  9
$USERR2
 40
0.0
  9
$USERR3
 40
0.0
  9
$USERR4
 40
0.0
  9
$USERR5
 40
0.0
  9
$WORLDVIEW
 70
     1
  9
$SHADEDGE
 70
     3
  9
$SHADEDIF
 70
    70
  9
$TILEMODE
 70
     1
  9
$MAXACTVP
 70
    64
  9
$PINSBASE
 10
0.0
 20
0.0
 30
0.0
  9
$PLIMCHECK
 70
     0
  9
$PEXTMIN
 10
1.0000000000E+20
 20
1.0000000000E+20
 30
1.0000000000E+20
  9
$PEXTMAX
 10
-1.0000000000E+20
 20
-1.0000000000E+20
 30
-1.0000000000E+20
  9
$PLIMMIN
 10
0.0
 20
0.0
  9
$PLIMMAX
 10
420.0
 20
297.0
  9
$UNITMODE
 70
     0
  9
$VISRETAIN
 70
     1
  9
$PLINEGEN
 70
     0
  9
$PSLTSCALE
 70
     1
  9
$TREEDEPTH
 70
  3020
  9
$CMLSTYLE
  2
Standard
  9
$CMLJUST
 70
     0
  9
$CMLSCALE
 40
20.0
  9
$PROXYGRAPHICS
 70
     1
  9
$MEASUREMENT
 70
     1
  9
$CELWEIGHT
370
    -1
  9
$ENDCAPS
280
     0
  9
$JOINSTYLE
280
     0
  9
$LWDISPLAY
290
     1
  9
$INSUNITS
 70
     4
  9
$HYPERLINKBASE
  1

  9
$STYLESHEET
  1

  9
$XEDIT
290
     1
  9
$CEPSNTYPE
380
     0
  9
$PSTYLEMODE
290
     1
  9
$FINGERPRINTGUID
  2
{e02f78ee-bbd5-4909-a658-9d60047b67b0}
  9
$VERSIONGUID
  2
{FAEB1C32-E019-11D5-929B-00C0DF256EC4}
  9
$EXTNAMES
290
     1
  9
$PSVPSCALE
 40
0.0
  9
$OLESTARTUP
290
     0
  0
ENDSEC
  0
SECTION
  2
CLASSES
  0
CLASS
  1
ACDBDICTIONARYWDFLT
  2
AcDbDictionaryWithDefault
  3
ObjectDBX Classes
 90
        0
280
     0
281
     0
  0
CLASS
  1
VISUALSTYLE
  2
AcDbVisualStyle
  3
ObjectDBX Classes
 90
     4095
280
     0
281
     0
  0
CLASS
  1
MATERIAL
  2
AcDbMaterial
  3
ObjectDBX Classes
 90
     1153
280
     0
281
     0
  0
CLASS
  1
SCALE
  2
AcDbScale
  3
ObjectDBX Classes
 90
     1153
280
     0
281
     0
  0
CLASS
  1
TABLESTYLE
  2
AcDbTableStyle
  3
ObjectDBX Classes
 90
     4095
280
     0
281
     0
  0
CLASS
  1
MLEADERSTYLE
  2
AcDbMLeaderStyle
  3
ACDB_MLEADERSTYLE_CLASS
 90
     4095
280
     0
281
     0
  0
CLASS
  1
SUN
  2
AcDbSun
  3
SCENEOE
 90
     1153
280
     0
281
     0
  0
CLASS
  1
ACDBPLACEHOLDER
  2
AcDbPlaceHolder
  3
ObjectDBX Classes
 90
        0
280
     0
281
     0
  0
CLASS
  1
LAYOUT
  2
AcDbLayout
  3
ObjectDBX Classes
 90
        0
280
     0
281
     0
  0
ENDSEC
  0
SECTION
  2
TABLES
  0
TABLE
  2
VPORT
  5
8
330
0
100
AcDbSymbolTable
 70
     1
  0
VPORT
  5
29
330
8
100
AcDbSymbolTableRecord
100
AcDbViewportTableRecord
  2
*Active
 70
     0
 10
0.0
 20
0.0
 11
1.0
 21
1.0
 12
139.7
 22
107.95
 13
0.0
 23
0.0
 14
10.0
 24
10.0
 15
10.0
 25
10.0
 16
0.0
 26
0.0
 36
1.0
 17
0.0
 27
0.0
 37
0.0
 40
215.9
 41
1.2941176471
 42
50.0
 43
0.0
 44
0.0
 50
0.0
 51
0.0
 71
     0
 72
  2000
 73
     1
 74
     3
 75
     0
 76
     0
 77
     0
 78
     0
281
     0
 65
     1
110
0.0
120
0.0
130
0.0
111
1.0
121
0.0
131
0.0
112
0.0
122
1.0
132
0.0
 79
     0
146
0.0
  0
ENDTAB
  0
TABLE
  2
LTYPE
  5
5
330
0
100
AcDbSymbolTable
 70
     6
  0
LTYPE
  5
14
330
5
100
AcDbSymbolTableRecord
100
AcDbLinetypeTableRecord
  2
ByBlock
 70
     0
  3

 72
    65
 73
     0
 40
0.0
  0
LTYPE
  5
15
330
5
100
AcDbSymbolTableRecord
100
AcDbLinetypeTableRecord
  2
ByLayer
 70
     0
  3

 72
    65
 73
     0
 40
0.0
  0
LTYPE
  5
16
330
5
100
AcDbSymbolTableRecord
100
AcDbLinetypeTableRecord
  2
Continuous
 70
     0
  3
Solid line
 72
    65
 73
     0
 40
0.0
  0
LTYPE
  5
6E
330
5
100
AcDbSymbolTableRecord
100
AcDbLinetypeTableRecord
  2
HIDDEN
 70
     0
  3
Hidden __ __ __ __ __ __ __ __ __ __ __ __ __ __
 72
    65
 73
     2
 40
1.905
 49
1.27
 74
     0
 49
-0.635
 74
     0
  0
LTYPE
  5
6F
330
5
100
AcDbSymbolTableRecord
100
AcDbLinetypeTableRecord
  2
PHANTOM
 70
     0
  3
Phantom ______  __  __  ______  __  __  ______
 72
    65
 73
     6
 40
12.7
 49
6.35
 74
     0
 49
-1.27
 74
     0
 49
1.27
 74
     0
 49
-1.27
 74
     0
 49
1.27
 74
     0
 49
-1.27
 74
     0
  0
LTYPE
  5
70
330
5
100
AcDbSymbolTableRecord
100
AcDbLinetypeTableRecord
  2
CENTER
 70
     0
  3
Center ____ _ ____ _ ____ _ ____ _ ____ _ ____
 72
    65
 73
     4
 40
10.16
 49
6.35
 74
     0
 49
-1.27
 74
     0
 49
1.27
 74
     0
 49
-1.27
 74
     0
  0
LTYPE
  5
71
330
5
100
AcDbSymbolTableRecord
100
AcDbLinetypeTableRecord
  2
CENTERX2
 70
     0
  3
Center (2x) ________  __  ________  __  _____
 72
    65
 73
     4
 40
20.32
 49
12.7
 74
     0
 49
-2.54
 74
     0
 49
2.54
 74
     0
 49
-2.54
 74
     0
  0
LTYPE
  5
72
330
5
100
AcDbSymbolTableRecord
100
AcDbLinetypeTableRecord
  2
DOT2
 70
     0
  3
Dot (.5x) ........................................
 72
    65
 73
     2
 40
0.635
 49
0.0
 74
     0
 49
-0.635
 74
     0
  0
ENDTAB
  0
TABLE
  2
LAYER
  5
2
330
0
100
AcDbSymbolTable
 70
    17
  0
LAYER
  5
10
330
2
100
AcDbSymbolTableRecord
100
AcDbLayerTableRecord
  2
0
 70
     0
 62
     7
  6
Continuous
370
    -3
390
F
  0
LAYER
  5
73
330
2
100
AcDbSymbolTableRecord
100
AcDbLayerTableRecord
  2
FORMAT
 70
     0
 62
     7
  6
Continuous
370
    -3
390
F
  0
LAYER
  5
74
330
2
100
AcDbSymbolTableRecord
100
AcDbLayerTableRecord
  2
YARDIMCI_GEOMETRI
 70
     0
 62
    -6
  6
Continuous
290
     0
370
    -3
390
F
  0
LAYER
  5
75
330
2
100
AcDbSymbolTableRecord
100
AcDbLayerTableRecord
  2
SAYFA_CERCEVESI
 70
     0
 62
     7
  6
Continuous
370
    25
390
F
  0
LAYER
  5
76
330
2
100
AcDbSymbolTableRecord
100
AcDbLayerTableRecord
  2
ANTET
 70
     0
 62
     7
  6
Continuous
370
    -3
390
F
  0
LAYER
  5
77
330
2
100
AcDbSymbolTableRecord
100
AcDbLayerTableRecord
  2
OLCU
 70
     0
 62
   150
  6
Continuous
370
    -3
390
F
  0
LAYER
  5
78
330
2
100
AcDbSymbolTableRecord
100
AcDbLayerTableRecord
  2
METIN
 70
     0
 62
    96
  6
Continuous
370
    -3
390
F
  0
LAYER
  5
79
330
2
100
AcDbSymbolTableRecord
100
AcDbLayerTableRecord
  2
BALON
 70
     0
 62
     5
  6
Continuous
370
    -3
390
F
  0
LAYER
  5
7A
330
2
100
AcDbSymbolTableRecord
100
AcDbLayerTableRecord
  2
VURGU
 70
     0
 62
     7
  6
Continuous
370
    -3
390
F
  0
LAYER
  5
7B
330
2
100
AcDbSymbolTableRecord
100
AcDbLayerTableRecord
  2
SILIK
 70
     0
 62
     7
  6
Continuous
370
    -3
390
F
  0
LAYER
  5
7C
330
2
100
AcDbSymbolTableRecord
100
AcDbLayerTableRecord
  2
MODEL
 70
     0
 62
     7
  6
Continuous
370
    -3
390
F
  0
LAYER
  5
7D
330
2
100
AcDbSymbolTableRecord
100
AcDbLayerTableRecord
  2
DETAYLANDıRMA
 70
     0
 62
   190
  6
Continuous
370
    -3
390
F
  0
LAYER
  5
7E
330
2
100
AcDbSymbolTableRecord
100
AcDbLayerTableRecord
  2
TOLERANS
 70
     0
 62
   230
  6
Continuous
370
    -3
390
F
  0
LAYER
  5
7F
330
2
100
AcDbSymbolTableRecord
100
AcDbLayerTableRecord
  2
MERKEZ_CIZGILERI
 70
     0
 62
    30
  6
Continuous
370
    -3
390
F
  0
LAYER
  5
80
330
2
100
AcDbSymbolTableRecord
100
AcDbLayerTableRecord
  2
KESIT-DETAY_CIZGILERI
 70
     0
 62
     7
  6
Continuous
370
    -3
390
F
  0
LAYER
  5
81
330
2
100
AcDbSymbolTableRecord
100
AcDbLayerTableRecord
  2
\U+041E\U+0421\U+0415\U+0412\U+042B\U+0415
 70
     0
 62
     7
  6
Continuous
370
    -3
390
F
  0
LAYER
  5
82
330
2
100
AcDbSymbolTableRecord
100
AcDbLayerTableRecord
  2
\U+0412\U+041E\U+0414\U+042F\U+041D\U+042B\U+0415_\U+0417\U+041D\U+0410\U+041A\U+0418
 70
     0
 62
    11
  6
Continuous
370
    -3
390
F
  0
ENDTAB
  0
TABLE
  2
STYLE
  5
3
330
0
100
AcDbSymbolTable
 70
     1
  0
STYLE
  5
11
330
3
100
AcDbSymbolTableRecord
100
AcDbTextStyleTableRecord
  2
Standard
 70
     0
 40
0.0
 41
1.0
 50
0.0
 71
     0
 42
3.5
  3
txt
  4

  0
ENDTAB
  0
TABLE
  2
VIEW
  5
6
330
0
100
AcDbSymbolTable
 70
     0
  0
ENDTAB
  0
TABLE
  2
UCS
  5
7
330
0
100
AcDbSymbolTable
 70
     0
  0
ENDTAB
  0
TABLE
  2
APPID
  5
9
330
0
100
AcDbSymbolTable
 70
     1
  0
APPID
  5
12
330
9
100
AcDbSymbolTableRecord
100
AcDbRegAppTableRecord
  2
ACAD
 70
     0
  0
ENDTAB
  0
TABLE
  2
DIMSTYLE
  5
A
330
0
100
AcDbSymbolTable
 70
     1
100
AcDbDimStyleTable
  0
DIMSTYLE
105
27
330
A
100
AcDbSymbolTableRecord
100
AcDbDimStyleTableRecord
  2
ISO-25
 70
     0
 41
2.5
 42
0.625
 43
3.75
 44
1.25
 73
     0
 74
     0
 77
     1
 78
     8
140
2.5
141
2.5
143
0.0393700787
147
0.625
171
     3
172
     1
178
     0
271
     2
272
     2
274
     3
278
    44
283
     0
284
     8
340
11
  0
ENDTAB
  0
TABLE
  2
BLOCK_RECORD
  5
1
330
0
100
AcDbSymbolTable
 70
     2
  0
BLOCK_RECORD
  5
1F
330
1
100
AcDbSymbolTableRecord
100
AcDbBlockTableRecord
  2
*Model_Space
340
22
  0
BLOCK_RECORD
  5
1B
330
1
100
AcDbSymbolTableRecord
100
AcDbBlockTableRecord
  2
*Paper_Space
340
1E
  0
BLOCK_RECORD
  5
23
330
1
100
AcDbSymbolTableRecord
100
AcDbBlockTableRecord
  2
*Paper_Space0
340
26
  0
BLOCK_RECORD
  5
8C
330
1
100
AcDbSymbolTableRecord
100
AcDbBlockTableRecord
  2
SW_CENTERMARKSYMBOL_0
340
0
102
{BLKREFS
331
97
102
}
  0
ENDTAB
  0
ENDSEC
  0
SECTION
  2
BLOCKS
  0
BLOCK
  5
20
330
1F
100
AcDbEntity
  8
0
100
AcDbBlockBegin
  2
*Model_Space
 70
     0
 10
0.0
 20
0.0
 30
0.0
  3
*Model_Space
  1

  0
ENDBLK
  5
21
330
1F
100
AcDbEntity
  8
0
100
AcDbBlockEnd
  0
BLOCK
  5
1C
330
1B
100
AcDbEntity
 67
     1
  8
0
100
AcDbBlockBegin
  2
*Paper_Space
 70
     0
 10
0.0
 20
0.0
 30
0.0
  3
*Paper_Space
  1

  0
ENDBLK
  5
1D
330
1B
100
AcDbEntity
 67
     1
  8
0
100
AcDbBlockEnd
  0
BLOCK
  5
24
330
23
100
AcDbEntity
  8
0
100
AcDbBlockBegin
  2
*Paper_Space0
 70
     0
 10
0.0
 20
0.0
 30
0.0
  3
*Paper_Space0
  1

  0
ENDBLK
  5
25
330
23
100
AcDbEntity
  8
0
100
AcDbBlockEnd
  0
BLOCK
  5
8D
330
8C
100
AcDbEntity
  8
0
100
AcDbBlockBegin
  2
SW_CENTERMARKSYMBOL_0
 70
     0
 10
0.0
 20
0.0
 30
0.0
  3
SW_CENTERMARKSYMBOL_0
  1

  0
LINE
  5
8F
330
8C
100
AcDbEntity
  8
FORMAT
 62
     0
100
AcDbLine
 10
0.0
 20
0.0
 30
0.0
 11
0.0
 21
2.5
 31
0.0
  0
LINE
  5
90
330
8C
100
AcDbEntity
  8
FORMAT
 62
     0
100
AcDbLine
 10
0.0
 20
0.0
 30
0.0
 11
-2.5
 21
0.0
 31
0.0
  0
LINE
  5
91
330
8C
100
AcDbEntity
  8
FORMAT
 62
     0
100
AcDbLine
 10
0.0
 20
0.0
 30
0.0
 11
0.0
 21
-2.5
 31
0.0
  0
LINE
  5
92
330
8C
100
AcDbEntity
  8
FORMAT
 62
     0
100
AcDbLine
 10
0.0
 20
0.0
 30
0.0
 11
2.5
 21
0.0
 31
0.0
  0
LINE
  5
93
330
8C
100
AcDbEntity
  8
FORMAT
 62
     0
100
AcDbLine
 10
0.0
 20
5.0
 30
0.0
 11
0.0
 21
22.5
 31
0.0
  0
LINE
  5
94
330
8C
100
AcDbEntity
  8
FORMAT
 62
     0
100
AcDbLine
 10
-5.0
 20
0.0
 30
0.0
 11
-22.5
 21
0.0
 31
0.0
  0
LINE
  5
95
330
8C
100
AcDbEntity
  8
FORMAT
 62
     0
100
AcDbLine
 10
0.0
 20
-5.0
 30
0.0
 11
0.0
 21
-22.5
 31
0.0
  0
LINE
  5
96
330
8C
100
AcDbEntity
  8
FORMAT
 62
     0
100
AcDbLine
 10
5.0
 20
0.0
 30
0.0
 11
22.5
 21
0.0
 31
0.0
  0
ENDBLK
  5
8E
330
8C
100
AcDbEntity
  8
0
100
AcDbBlockEnd
  0
ENDSEC
  0
SECTION
  2
ENTITIES
  0
CIRCLE
  5
83
330
1F
100
AcDbEntity
  8
0
  6
Continuous
 62
     7
370
    25
100
AcDbCircle
 10
139.8323425481
 20
108.7440552885
 30
0.0
 40
16.30000000000001
  0
CIRCLE
  5
84
330
1F
100
AcDbEntity
  8
0
  6
Continuous
 62
     7
370
    25
100
AcDbCircle
 10
139.8323425481
 20
108.7440552885
 30
0.0
 40
20.00000000000001
  0
CIRCLE
  5
85
330
1F
100
AcDbEntity
  8
0
  6
Continuous
 62
     7
370
    25
100
AcDbCircle
 10
139.8323425481
 20
108.7440552885
 30
0.0
 40
15.00000000000001
  0
LINE
  5
86
330
1F
100
AcDbEntity
  8
0
  6
Continuous
 62
     7
370
    25
100
AcDbLine
 10
112.3323425481
 20
124.6211876912
 30
0.0
 11
139.8323425481
 21
140.4983200939
 31
0.0
  0
LINE
  5
87
330
1F
100
AcDbEntity
  8
0
  6
Continuous
 62
     7
370
    25
100
AcDbLine
 10
112.3323425481
 20
92.8669228857
 30
0.0
 11
112.3323425481
 21
124.6211876912
 31
0.0
  0
LINE
  5
88
330
1F
100
AcDbEntity
  8
0
  6
Continuous
 62
     7
370
    25
100
AcDbLine
 10
167.3323425481
 20
124.6211876912
 30
0.0
 11
167.3323425481
 21
92.8669228857
 31
0.0
  0
LINE
  5
89
330
1F
100
AcDbEntity
  8
0
  6
Continuous
 62
     7
370
    25
100
AcDbLine
 10
139.8323425481
 20
140.4983200939
 30
0.0
 11
167.3323425481
 21
124.6211876912
 31
0.0
  0
LINE
  5
8A
330
1F
100
AcDbEntity
  8
0
  6
Continuous
 62
     7
370
    25
100
AcDbLine
 10
167.3323425481
 20
92.8669228857
 30
0.0
 11
139.8323425481
 21
76.989790483
 31
0.0
  0
LINE
  5
8B
330
1F
100
AcDbEntity
  8
0
  6
Continuous
 62
     7
370
    25
100
AcDbLine
 10
139.8323425481
 20
76.989790483
 30
0.0
 11
112.3323425481
 21
92.8669228857
 31
0.0
  0
INSERT
  5
97
330
1F
100
AcDbEntity
  8
FORMAT
 62
     7
100
AcDbBlockReference
  2
SW_CENTERMARKSYMBOL_0
 10
139.8323425481
 20
108.7440552885
 30
0.0
  0
LINE
  5
98
330
1F
100
AcDbEntity
  8
0
  6
Continuous
 62
     7
370
    25
100
AcDbLine
 10
160.7823425481
 20
157.4358185881
 30
0.0
 11
160.7823425481
 21
157.6358185881
 31
0.0
  0
LINE
  5
99
330
1F
100
AcDbEntity
  8
0
  6
Continuous
 62
     7
370
    25
100
AcDbLine
 10
118.8823425481
 20
157.6358185881
 30
0.0
 11
118.8823425481
 21
157.4358185881
 31
0.0
  0
LINE
  5
9A
330
1F
100
AcDbEntity
  8
0
  6
Continuous
 62
     7
370
    25
100
AcDbLine
 10
160.7823425481
 20
157.6358185881
 30
0.0
 11
159.0502917405
 21
158.6358185881
 31
0.0
  0
LINE
  5
9B
330
1F
100
AcDbEntity
  8
0
  6
Continuous
 62
     7
370
    25
100
AcDbLine
 10
120.6143933556
 20
158.6358185881
 30
0.0
 11
118.8823425481
 21
157.6358185881
 31
0.0
  0
LINE
  5
9C
330
1F
100
AcDbEntity
  8
0
  6
Continuous
 62
     7
370
    25
100
AcDbLine
 10
118.8823425481
 20
159.6358185881
 30
0.0
 11
120.6143933556
 21
158.6358185881
 31
0.0
  0
LINE
  5
9D
330
1F
100
AcDbEntity
  8
0
  6
Continuous
 62
     7
370
    25
100
AcDbLine
 10
159.0502917405
 20
158.6358185881
 30
0.0
 11
160.7823425481
 21
159.6358185881
 31
0.0
  0
LINE
  5
9E
330
1F
100
AcDbEntity
  8
0
  6
Continuous
 62
     7
370
    25
100
AcDbLine
 10
160.7823425481
 20
159.6358185881
 30
0.0
 11
159.0502917405
 21
160.6358185881
 31
0.0
  0
LINE
  5
9F
330
1F
100
AcDbEntity
  8
0
  6
Continuous
 62
     7
370
    25
100
AcDbLine
 10
120.6143933556
 20
160.6358185881
 30
0.0
 11
118.8823425481
 21
159.6358185881
 31
0.0
  0
LINE
  5
A0
330
1F
100
AcDbEntity
  8
0
  6
Continuous
 62
     7
370
    25
100
AcDbLine
 10
118.8823425481
 20
161.6358185881
 30
0.0
 11
120.6143933556
 21
160.6358185881
 31
0.0
  0
LINE
  5
A1
330
1F
100
AcDbEntity
  8
0
  6
Continuous
 62
     7
370
    25
100
AcDbLine
 10
159.0502917405
 20
160.6358185881
 30
0.0
 11
160.7823425481
 21
161.6358185881
 31
0.0
  0
LINE
  5
A2
330
1F
100
AcDbEntity
  8
0
  6
Continuous
 62
     7
370
    25
100
AcDbLine
 10
160.7823425481
 20
161.6358185881
 30
0.0
 11
159.0502917405
 21
162.6358185881
 31
0.0
  0
LINE
  5
A3
330
1F
100
AcDbEntity
  8
0
  6
Continuous
 62
     7
370
    25
100
AcDbLine
 10
120.6143933556
 20
162.6358185881
 30
0.0
 11
118.8823425481
 21
161.6358185881
 31
0.0
  0
LINE
  5
A4
330
1F
100
AcDbEntity
  8
0
  6
Continuous
 62
     7
370
    25
100
AcDbLine
 10
118.8823425481
 20
163.6358185881
 30
0.0
 11
120.6143933556
 21
162.6358185881
 31
0.0
  0
LINE
  5
A5
330
1F
100
AcDbEntity
  8
0
  6
Continuous
 62
     7
370
    25
100
AcDbLine
 10
159.0502917405
 20
162.6358185881
 30
0.0
 11
160.7823425481
 21
163.6358185881
 31
0.0
  0
LINE
  5
A6
330
1F
100
AcDbEntity
  8
0
  6
Continuous
 62
     7
370
    25
100
AcDbLine
 10
160.7823425481
 20
163.6358185881
 30
0.0
 11
160.7823425481
 21
179.9358185881
 31
0.0
  0
LINE
  5
A7
330
1F
100
AcDbEntity
  8
0
  6
Continuous
 62
     7
370
    25
100
AcDbLine
 10
118.8823425481
 20
179.9358185881
 30
0.0
 11
118.8823425481
 21
163.6358185881
 31
0.0
  0
LINE
  5
A8
330
1F
100
AcDbEntity
  8
0
  6
Continuous
 62
     7
370
    25
100
AcDbLine
 10
159.8323425481
 20
195.9358185881
 30
0.0
 11
159.8323425481
 21
240.4358185881
 31
0.0
  0
LINE
  5
A9
330
1F
100
AcDbEntity
  8
0
  6
Continuous
 62
     7
370
    25
100
AcDbLine
 10
119.8323425481
 20
240.4358185881
 30
0.0
 11
119.8323425481
 21
195.9358185881
 31
0.0
  0
LINE
  5
AA
330
1F
100
AcDbEntity
  8
0
  6
Continuous
 62
     7
370
    25
100
AcDbLine
 10
139.8323425481
 20
195.9358185881
 30
0.0
 11
139.8323425481
 21
179.9358185881
 31
0.0
  0
LINE
  5
AB
330
1F
100
AcDbEntity
  8
0
  6
Continuous
 62
     7
370
    25
100
AcDbLine
 10
167.3323425481
 20
195.9358185881
 30
0.0
 11
139.8323425481
 21
195.9358185881
 31
0.0
  0
LINE
  5
AC
330
1F
100
AcDbEntity
  8
0
  6
Continuous
 62
     7
370
    25
100
AcDbLine
 10
167.3323425481
 20
195.9358185881
 30
0.0
 11
167.3323425481
 21
179.9358185881
 31
0.0
  0
LINE
  5
AD
330
1F
100
AcDbEntity
  8
0
  6
Continuous
 62
     7
370
    25
100
AcDbLine
 10
139.8323425481
 20
179.9358185881
 30
0.0
 11
167.3323425481
 21
179.9358185881
 31
0.0
  0
LINE
  5
AE
330
1F
100
AcDbEntity
  8
0
  6
Continuous
 62
     7
370
    25
100
AcDbLine
 10
112.3323425481
 20
195.9358185881
 30
0.0
 11
112.3323425481
 21
179.9358185881
 31
0.0
  0
LINE
  5
AF
330
1F
100
AcDbEntity
  8
0
  6
Continuous
 62
     7
370
    25
100
AcDbLine
 10
139.8323425481
 20
195.9358185881
 30
0.0
 11
112.3323425481
 21
195.9358185881
 31
0.0
  0
LINE
  5
B0
330
1F
100
AcDbEntity
  8
0
  6
Continuous
 62
     7
370
    25
100
AcDbLine
 10
112.3323425481
 20
179.9358185881
 30
0.0
 11
139.8323425481
 21
179.9358185881
 31
0.0
  0
LINE
  5
B1
330
1F
100
AcDbEntity
  8
0
  6
Continuous
 62
     7
370
    25
100
AcDbLine
 10
160.7823425481
 20
157.6358185881
 30
0.0
 11
118.8823425481
 21
157.6358185881
 31
0.0
  0
LINE
  5
B2
330
1F
100
AcDbEntity
  8
0
  6
Continuous
 62
     7
370
    25
100
AcDbLine
 10
160.7823425481
 20
157.4358185881
 30
0.0
 11
118.8823425481
 21
157.4358185881
 31
0.0
  0
LINE
  5
B3
330
1F
100
AcDbEntity
  8
0
  6
Continuous
 62
     7
370
    25
100
AcDbLine
 10
159.0502917405
 20
158.6358185881
 30
0.0
 11
120.6143933556
 21
158.6358185881
 31
0.0
  0
LINE
  5
B4
330
1F
100
AcDbEntity
  8
0
  6
Continuous
 62
     7
370
    25
100
AcDbLine
 10
160.7823425481
 20
159.6358185881
 30
0.0
 11
118.8823425481
 21
159.6358185881
 31
0.0
  0
LINE
  5
B5
330
1F
100
AcDbEntity
  8
0
  6
Continuous
 62
     7
370
    25
100
AcDbLine
 10
159.0502917405
 20
160.6358185881
 30
0.0
 11
120.6143933556
 21
160.6358185881
 31
0.0
  0
LINE
  5
B6
330
1F
100
AcDbEntity
  8
0
  6
Continuous
 62
     7
370
    25
100
AcDbLine
 10
160.7823425481
 20
161.6358185881
 30
0.0
 11
118.8823425481
 21
161.6358185881
 31
0.0
  0
LINE
  5
B7
330
1F
100
AcDbEntity
  8
0
  6
Continuous
 62
     7
370
    25
100
AcDbLine
 10
159.0502917405
 20
162.6358185881
 30
0.0
 11
120.6143933556
 21
162.6358185881
 31
0.0
  0
LINE
  5
B8
330
1F
100
AcDbEntity
  8
0
  6
Continuous
 62
     7
370
    25
100
AcDbLine
 10
160.7823425481
 20
163.6358185881
 30
0.0
 11
118.8823425481
 21
163.6358185881
 31
0.0
  0
LINE
  5
B9
330
1F
100
AcDbEntity
  8
0
  6
Continuous
 62
     7
370
    25
100
AcDbLine
 10
159.8323425481
 20
240.4358185881
 30
0.0
 11
119.8323425481
 21
240.4358185881
 31
0.0
  0
LINE
  5
BA
330
1F
100
AcDbEntity
  8
0
  6
Continuous
 62
     7
370
    25
100
AcDbLine
 10
217.3322509715
 20
87.7940552885
 30
0.0
 11
218.3322509715
 21
89.526106096
 31
0.0
  0
LINE
  5
BB
330
1F
100
AcDbEntity
  8
0
  6
Continuous
 62
     7
370
    25
100
AcDbLine
 10
218.3322509715
 20
127.9620044809
 30
0.0
 11
217.3322509715
 21
129.6940552885
 31
0.0
  0
LINE
  5
BC
330
1F
100
AcDbEntity
  8
0
  6
Continuous
 62
     7
370
    25
100
AcDbLine
 10
217.1322509715
 20
87.7940552885
 30
0.0
 11
217.3322509715
 21
87.7940552885
 31
0.0
  0
LINE
  5
BD
330
1F
100
AcDbEntity
  8
0
  6
Continuous
 62
     7
370
    25
100
AcDbLine
 10
217.3322509715
 20
129.6940552885
 30
0.0
 11
217.1322509715
 21
129.6940552885
 31
0.0
  0
LINE
  5
BE
330
1F
100
AcDbEntity
  8
0
  6
Continuous
 62
     7
370
    25
100
AcDbLine
 10
219.3322509715
 20
129.6940552885
 30
0.0
 11
218.3322509715
 21
127.9620044809
 31
0.0
  0
LINE
  5
BF
330
1F
100
AcDbEntity
  8
0
  6
Continuous
 62
     7
370
    25
100
AcDbLine
 10
218.3322509715
 20
89.526106096
 30
0.0
 11
219.3322509715
 21
87.7940552885
 31
0.0
  0
LINE
  5
C0
330
1F
100
AcDbEntity
  8
0
  6
Continuous
 62
     7
370
    25
100
AcDbLine
 10
219.3322509715
 20
87.7940552885
 30
0.0
 11
220.3322509715
 21
89.526106096
 31
0.0
  0
LINE
  5
C1
330
1F
100
AcDbEntity
  8
0
  6
Continuous
 62
     7
370
    25
100
AcDbLine
 10
220.3322509715
 20
127.9620044809
 30
0.0
 11
219.3322509715
 21
129.6940552885
 31
0.0
  0
LINE
  5
C2
330
1F
100
AcDbEntity
  8
0
  6
Continuous
 62
     7
370
    25
100
AcDbLine
 10
221.3322509715
 20
129.6940552885
 30
0.0
 11
220.3322509715
 21
127.9620044809
 31
0.0
  0
LINE
  5
C3
330
1F
100
AcDbEntity
  8
0
  6
Continuous
 62
     7
370
    25
100
AcDbLine
 10
220.3322509715
 20
89.526106096
 30
0.0
 11
221.3322509715
 21
87.7940552885
 31
0.0
  0
LINE
  5
C4
330
1F
100
AcDbEntity
  8
0
  6
Continuous
 62
     7
370
    25
100
AcDbLine
 10
221.3322509715
 20
87.7940552885
 30
0.0
 11
222.3322509715
 21
89.526106096
 31
0.0
  0
LINE
  5
C5
330
1F
100
AcDbEntity
  8
0
  6
Continuous
 62
     7
370
    25
100
AcDbLine
 10
222.3322509715
 20
127.9620044809
 30
0.0
 11
221.3322509715
 21
129.6940552885
 31
0.0
  0
LINE
  5
C6
330
1F
100
AcDbEntity
  8
0
  6
Continuous
 62
     7
370
    25
100
AcDbLine
 10
223.3322509715
 20
129.6940552885
 30
0.0
 11
222.3322509715
 21
127.9620044809
 31
0.0
  0
LINE
  5
C7
330
1F
100
AcDbEntity
  8
0
  6
Continuous
 62
     7
370
    25
100
AcDbLine
 10
222.3322509715
 20
89.526106096
 30
0.0
 11
223.3322509715
 21
87.7940552885
 31
0.0
  0
LINE
  5
C8
330
1F
100
AcDbEntity
  8
0
  6
Continuous
 62
     7
370
    25
100
AcDbLine
 10
223.3322509715
 20
87.7940552885
 30
0.0
 11
239.6322509715
 21
87.7940552885
 31
0.0
  0
LINE
  5
C9
330
1F
100
AcDbEntity
  8
0
  6
Continuous
 62
     7
370
    25
100
AcDbLine
 10
239.6322509715
 20
129.6940552885
 30
0.0
 11
223.3322509715
 21
129.6940552885
 31
0.0
  0
LINE
  5
CA
330
1F
100
AcDbEntity
  8
0
  6
Continuous
 62
     7
370
    25
100
AcDbLine
 10
255.6322509715
 20
88.7440552885
 30
0.0
 11
300.1322509715
 21
88.7440552885
 31
0.0
  0
LINE
  5
CB
330
1F
100
AcDbEntity
  8
0
  6
Continuous
 62
     7
370
    25
100
AcDbLine
 10
300.1322509715
 20
128.7440552885
 30
0.0
 11
255.6322509715
 21
128.7440552885
 31
0.0
  0
LINE
  5
CC
330
1F
100
AcDbEntity
  8
0
  6
Continuous
 62
     7
370
    25
100
AcDbLine
 10
255.6322509715
 20
92.8669228857
 30
0.0
 11
239.6322509715
 21
92.8669228857
 31
0.0
  0
LINE
  5
CD
330
1F
100
AcDbEntity
  8
0
  6
Continuous
 62
     7
370
    25
100
AcDbLine
 10
255.6322509715
 20
76.989790483
 30
0.0
 11
255.6322509715
 21
92.8669228857
 31
0.0
  0
LINE
  5
CE
330
1F
100
AcDbEntity
  8
0
  6
Continuous
 62
     7
370
    25
100
AcDbLine
 10
255.6322509715
 20
76.989790483
 30
0.0
 11
239.6322509715
 21
76.989790483
 31
0.0
  0
LINE
  5
CF
330
1F
100
AcDbEntity
  8
0
  6
Continuous
 62
     7
370
    25
100
AcDbLine
 10
239.6322509715
 20
92.8669228857
 30
0.0
 11
239.6322509715
 21
76.989790483
 31
0.0
  0
LINE
  5
D0
330
1F
100
AcDbEntity
  8
0
  6
Continuous
 62
     7
370
    25
100
AcDbLine
 10
255.6322509715
 20
124.6211876912
 30
0.0
 11
239.6322509715
 21
124.6211876912
 31
0.0
  0
LINE
  5
D1
330
1F
100
AcDbEntity
  8
0
  6
Continuous
 62
     7
370
    25
100
AcDbLine
 10
255.6322509715
 20
92.8669228857
 30
0.0
 11
255.6322509715
 21
124.6211876912
 31
0.0
  0
LINE
  5
D2
330
1F
100
AcDbEntity
  8
0
  6
Continuous
 62
     7
370
    25
100
AcDbLine
 10
239.6322509715
 20
124.6211876912
 30
0.0
 11
239.6322509715
 21
92.8669228857
 31
0.0
  0
LINE
  5
D3
330
1F
100
AcDbEntity
  8
0
  6
Continuous
 62
     7
370
    25
100
AcDbLine
 10
255.6322509715
 20
140.4983200939
 30
0.0
 11
239.6322509715
 21
140.4983200939
 31
0.0
  0
LINE
  5
D4
330
1F
100
AcDbEntity
  8
0
  6
Continuous
 62
     7
370
    25
100
AcDbLine
 10
255.6322509715
 20
124.6211876912
 30
0.0
 11
255.6322509715
 21
140.4983200939
 31
0.0
  0
LINE
  5
D5
330
1F
100
AcDbEntity
  8
0
  6
Continuous
 62
     7
370
    25
100
AcDbLine
 10
239.6322509715
 20
140.4983200939
 30
0.0
 11
239.6322509715
 21
124.6211876912
 31
0.0
  0
LINE
  5
D6
330
1F
100
AcDbEntity
  8
0
  6
Continuous
 62
     7
370
    25
100
AcDbLine
 10
218.3322509715
 20
108.7440552885
 30
0.0
 11
218.3322509715
 21
127.9620044809
 31
0.0
  0
LINE
  5
D7
330
1F
100
AcDbEntity
  8
0
  6
Continuous
 62
     7
370
    25
100
AcDbLine
 10
218.3322509715
 20
89.526106096
 30
0.0
 11
218.3322509715
 21
108.7440552885
 31
0.0
  0
LINE
  5
D8
330
1F
100
AcDbEntity
  8
0
  6
Continuous
 62
     7
370
    25
100
AcDbLine
 10
217.3322509715
 20
108.7440552885
 30
0.0
 11
217.3322509715
 21
129.6940552885
 31
0.0
  0
LINE
  5
D9
330
1F
100
AcDbEntity
  8
0
  6
Continuous
 62
     7
370
    25
100
AcDbLine
 10
217.3322509715
 20
87.7940552885
 30
0.0
 11
217.3322509715
 21
108.7440552885
 31
0.0
  0
LINE
  5
DA
330
1F
100
AcDbEntity
  8
0
  6
Continuous
 62
     7
370
    25
100
AcDbLine
 10
217.1322509715
 20
108.7440552885
 30
0.0
 11
217.1322509715
 21
129.6940552885
 31
0.0
  0
LINE
  5
DB
330
1F
100
AcDbEntity
  8
0
  6
Continuous
 62
     7
370
    25
100
AcDbLine
 10
217.1322509715
 20
87.7940552885
 30
0.0
 11
217.1322509715
 21
108.7440552885
 31
0.0
  0
LINE
  5
DC
330
1F
100
AcDbEntity
  8
0
  6
Continuous
 62
     7
370
    25
100
AcDbLine
 10
219.3322509715
 20
108.7440552885
 30
0.0
 11
219.3322509715
 21
129.6940552885
 31
0.0
  0
LINE
  5
DD
330
1F
100
AcDbEntity
  8
0
  6
Continuous
 62
     7
370
    25
100
AcDbLine
 10
219.3322509715
 20
87.7940552885
 30
0.0
 11
219.3322509715
 21
108.7440552885
 31
0.0
  0
LINE
  5
DE
330
1F
100
AcDbEntity
  8
0
  6
Continuous
 62
     7
370
    25
100
AcDbLine
 10
220.3322509715
 20
108.7440552885
 30
0.0
 11
220.3322509715
 21
127.9620044809
 31
0.0
  0
LINE
  5
DF
330
1F
100
AcDbEntity
  8
0
  6
Continuous
 62
     7
370
    25
100
AcDbLine
 10
220.3322509715
 20
89.526106096
 30
0.0
 11
220.3322509715
 21
108.7440552885
 31
0.0
  0
LINE
  5
E0
330
1F
100
AcDbEntity
  8
0
  6
Continuous
 62
     7
370
    25
100
AcDbLine
 10
221.3322509715
 20
108.7440552885
 30
0.0
 11
221.3322509715
 21
129.6940552885
 31
0.0
  0
LINE
  5
E1
330
1F
100
AcDbEntity
  8
0
  6
Continuous
 62
     7
370
    25
100
AcDbLine
 10
221.3322509715
 20
87.7940552885
 30
0.0
 11
221.3322509715
 21
108.7440552885
 31
0.0
  0
LINE
  5
E2
330
1F
100
AcDbEntity
  8
0
  6
Continuous
 62
     7
370
    25
100
AcDbLine
 10
222.3322509715
 20
108.7440552885
 30
0.0
 11
222.3322509715
 21
127.9620044809
 31
0.0
  0
LINE
  5
E3
330
1F
100
AcDbEntity
  8
0
  6
Continuous
 62
     7
370
    25
100
AcDbLine
 10
222.3322509715
 20
89.526106096
 30
0.0
 11
222.3322509715
 21
108.7440552885
 31
0.0
  0
LINE
  5
E4
330
1F
100
AcDbEntity
  8
0
  6
Continuous
 62
     7
370
    25
100
AcDbLine
 10
223.3322509715
 20
108.7440552885
 30
0.0
 11
223.3322509715
 21
129.6940552885
 31
0.0
  0
LINE
  5
E5
330
1F
100
AcDbEntity
  8
0
  6
Continuous
 62
     7
370
    25
100
AcDbLine
 10
223.3322509715
 20
87.7940552885
 30
0.0
 11
223.3322509715
 21
108.7440552885
 31
0.0
  0
LINE
  5
E6
330
1F
100
AcDbEntity
  8
0
  6
Continuous
 62
     7
370
    25
100
AcDbLine
 10
300.1322509715
 20
108.7440552885
 30
0.0
 11
300.1322509715
 21
128.7440552885
 31
0.0
  0
LINE
  5
E7
330
1F
100
AcDbEntity
  8
0
  6
Continuous
 62
     7
370
    25
100
AcDbLine
 10
300.1322509715
 20
88.7440552885
 30
0.0
 11
300.1322509715
 21
108.7440552885
 31
0.0
  0
LINE
  5
E8
330
1F
100
AcDbEntity
  8
0
  6
Continuous
 62
     7
370
    25
100
AcDbLine
 10
68.623509621
 20
129.6940552885
 30
0.0
 11
68.423509621
 21
129.6940552885
 31
0.0
  0
LINE
  5
E9
330
1F
100
AcDbEntity
  8
0
  6
Continuous
 62
     7
370
    25
100
AcDbLine
 10
68.423509621
 20
87.7940552885
 30
0.0
 11
68.623509621
 21
87.7940552885
 31
0.0
  0
LINE
  5
EA
330
1F
100
AcDbEntity
  8
0
  6
Continuous
 62
     7
370
    25
100
AcDbLine
 10
68.423509621
 20
129.6940552885
 30
0.0
 11
67.423509621
 21
127.9620044809
 31
0.0
  0
LINE
  5
EB
330
1F
100
AcDbEntity
  8
0
  6
Continuous
 62
     7
370
    25
100
AcDbLine
 10
67.423509621
 20
89.526106096
 30
0.0
 11
68.423509621
 21
87.7940552885
 31
0.0
  0
LINE
  5
EC
330
1F
100
AcDbEntity
  8
0
  6
Continuous
 62
     7
370
    25
100
AcDbLine
 10
66.423509621
 20
87.7940552885
 30
0.0
 11
67.423509621
 21
89.526106096
 31
0.0
  0
LINE
  5
ED
330
1F
100
AcDbEntity
  8
0
  6
Continuous
 62
     7
370
    25
100
AcDbLine
 10
67.423509621
 20
127.9620044809
 30
0.0
 11
66.423509621
 21
129.6940552885
 31
0.0
  0
LINE
  5
EE
330
1F
100
AcDbEntity
  8
0
  6
Continuous
 62
     7
370
    25
100
AcDbLine
 10
66.423509621
 20
129.6940552885
 30
0.0
 11
65.423509621
 21
127.9620044809
 31
0.0
  0
LINE
  5
EF
330
1F
100
AcDbEntity
  8
0
  6
Continuous
 62
     7
370
    25
100
AcDbLine
 10
65.423509621
 20
89.526106096
 30
0.0
 11
66.423509621
 21
87.7940552885
 31
0.0
  0
LINE
  5
F0
330
1F
100
AcDbEntity
  8
0
  6
Continuous
 62
     7
370
    25
100
AcDbLine
 10
64.423509621
 20
87.7940552885
 30
0.0
 11
65.423509621
 21
89.526106096
 31
0.0
  0
LINE
  5
F1
330
1F
100
AcDbEntity
  8
0
  6
Continuous
 62
     7
370
    25
100
AcDbLine
 10
65.423509621
 20
127.9620044809
 30
0.0
 11
64.423509621
 21
129.6940552885
 31
0.0
  0
LINE
  5
F2
330
1F
100
AcDbEntity
  8
0
  6
Continuous
 62
     7
370
    25
100
AcDbLine
 10
64.423509621
 20
129.6940552885
 30
0.0
 11
63.423509621
 21
127.9620044809
 31
0.0
  0
LINE
  5
F3
330
1F
100
AcDbEntity
  8
0
  6
Continuous
 62
     7
370
    25
100
AcDbLine
 10
63.423509621
 20
89.526106096
 30
0.0
 11
64.423509621
 21
87.7940552885
 31
0.0
  0
LINE
  5
F4
330
1F
100
AcDbEntity
  8
0
  6
Continuous
 62
     7
370
    25
100
AcDbLine
 10
62.423509621
 20
87.7940552885
 30
0.0
 11
63.423509621
 21
89.526106096
 31
0.0
  0
LINE
  5
F5
330
1F
100
AcDbEntity
  8
0
  6
Continuous
 62
     7
370
    25
100
AcDbLine
 10
63.423509621
 20
127.9620044809
 30
0.0
 11
62.423509621
 21
129.6940552885
 31
0.0
  0
LINE
  5
F6
330
1F
100
AcDbEntity
  8
0
  6
Continuous
 62
     7
370
    25
100
AcDbLine
 10
62.423509621
 20
129.6940552885
 30
0.0
 11
46.123509621
 21
129.6940552885
 31
0.0
  0
LINE
  5
F7
330
1F
100
AcDbEntity
  8
0
  6
Continuous
 62
     7
370
    25
100
AcDbLine
 10
46.123509621
 20
87.7940552885
 30
0.0
 11
62.423509621
 21
87.7940552885
 31
0.0
  0
LINE
  5
F8
330
1F
100
AcDbEntity
  8
0
  6
Continuous
 62
     7
370
    25
100
AcDbLine
 10
30.123509621
 20
128.7440552885
 30
0.0
 11
-14.376490379
 21
128.7440552885
 31
0.0
  0
LINE
  5
F9
330
1F
100
AcDbEntity
  8
0
  6
Continuous
 62
     7
370
    25
100
AcDbLine
 10
-14.376490379
 20
88.7440552885
 30
0.0
 11
30.123509621
 21
88.7440552885
 31
0.0
  0
LINE
  5
FA
330
1F
100
AcDbEntity
  8
0
  6
Continuous
 62
     7
370
    25
100
AcDbLine
 10
30.123509621
 20
92.8669228857
 30
0.0
 11
46.123509621
 21
92.8669228857
 31
0.0
  0
LINE
  5
FB
330
1F
100
AcDbEntity
  8
0
  6
Continuous
 62
     7
370
    25
100
AcDbLine
 10
30.123509621
 20
124.6211876912
 30
0.0
 11
30.123509621
 21
92.8669228857
 31
0.0
  0
LINE
  5
FC
330
1F
100
AcDbEntity
  8
0
  6
Continuous
 62
     7
370
    25
100
AcDbLine
 10
30.123509621
 20
124.6211876912
 30
0.0
 11
46.123509621
 21
124.6211876912
 31
0.0
  0
LINE
  5
FD
330
1F
100
AcDbEntity
  8
0
  6
Continuous
 62
     7
370
    25
100
AcDbLine
 10
46.123509621
 20
92.8669228857
 30
0.0
 11
46.123509621
 21
124.6211876912
 31
0.0
  0
LINE
  5
FE
330
1F
100
AcDbEntity
  8
0
  6
Continuous
 62
     7
370
    25
100
AcDbLine
 10
30.123509621
 20
140.4983200939
 30
0.0
 11
30.123509621
 21
124.6211876912
 31
0.0
  0
LINE
  5
FF
330
1F
100
AcDbEntity
  8
0
  6
Continuous
 62
     7
370
    25
100
AcDbLine
 10
30.123509621
 20
140.4983200939
 30
0.0
 11
46.123509621
 21
140.4983200939
 31
0.0
  0
LINE
  5
100
330
1F
100
AcDbEntity
  8
0
  6
Continuous
 62
     7
370
    25
100
AcDbLine
 10
46.123509621
 20
124.6211876912
 30
0.0
 11
46.123509621
 21
140.4983200939
 31
0.0
  0
LINE
  5
101
330
1F
100
AcDbEntity
  8
0
  6
Continuous
 62
     7
370
    25
100
AcDbLine
 10
30.123509621
 20
76.989790483
 30
0.0
 11
46.123509621
 21
76.989790483
 31
0.0
  0
LINE
  5
102
330
1F
100
AcDbEntity
  8
0
  6
Continuous
 62
     7
370
    25
100
AcDbLine
 10
30.123509621
 20
92.8669228857
 30
0.0
 11
30.123509621
 21
76.989790483
 31
0.0
  0
LINE
  5
103
330
1F
100
AcDbEntity
  8
0
  6
Continuous
 62
     7
370
    25
100
AcDbLine
 10
46.123509621
 20
76.989790483
 30
0.0
 11
46.123509621
 21
92.8669228857
 31
0.0
  0
LINE
  5
104
330
1F
100
AcDbEntity
  8
0
  6
Continuous
 62
     7
370
    25
100
AcDbLine
 10
68.423509621
 20
129.6940552885
 30
0.0
 11
68.423509621
 21
87.7940552885
 31
0.0
  0
LINE
  5
105
330
1F
100
AcDbEntity
  8
0
  6
Continuous
 62
     7
370
    25
100
AcDbLine
 10
68.623509621
 20
129.6940552885
 30
0.0
 11
68.623509621
 21
87.7940552885
 31
0.0
  0
LINE
  5
106
330
1F
100
AcDbEntity
  8
0
  6
Continuous
 62
     7
370
    25
100
AcDbLine
 10
67.423509621
 20
127.9620044809
 30
0.0
 11
67.423509621
 21
89.526106096
 31
0.0
  0
LINE
  5
107
330
1F
100
AcDbEntity
  8
0
  6
Continuous
 62
     7
370
    25
100
AcDbLine
 10
66.423509621
 20
129.6940552885
 30
0.0
 11
66.423509621
 21
87.7940552885
 31
0.0
  0
LINE
  5
108
330
1F
100
AcDbEntity
  8
0
  6
Continuous
 62
     7
370
    25
100
AcDbLine
 10
65.423509621
 20
127.9620044809
 30
0.0
 11
65.423509621
 21
89.526106096
 31
0.0
  0
LINE
  5
109
330
1F
100
AcDbEntity
  8
0
  6
Continuous
 62
     7
370
    25
100
AcDbLine
 10
64.423509621
 20
129.6940552885
 30
0.0
 11
64.423509621
 21
87.7940552885
 31
0.0
  0
LINE
  5
10A
330
1F
100
AcDbEntity
  8
0
  6
Continuous
 62
     7
370
    25
100
AcDbLine
 10
63.423509621
 20
127.9620044809
 30
0.0
 11
63.423509621
 21
89.526106096
 31
0.0
  0
LINE
  5
10B
330
1F
100
AcDbEntity
  8
0
  6
Continuous
 62
     7
370
    25
100
AcDbLine
 10
62.423509621
 20
129.6940552885
 30
0.0
 11
62.423509621
 21
87.7940552885
 31
0.0
  0
LINE
  5
10C
330
1F
100
AcDbEntity
  8
0
  6
Continuous
 62
     7
370
    25
100
AcDbLine
 10
-14.376490379
 20
128.7440552885
 30
0.0
 11
-14.376490379
 21
88.7440552885
 31
0.0
  0
LINE
  5
10D
330
1F
100
AcDbEntity
  8
0
  6
Continuous
 62
     7
370
    25
100
AcDbLine
 10
265.7066488222
 20
26.5471512437
 30
0.0
 11
234.2403970594
 21
44.7122317318
 31
0.0
  0
LINE
  5
10E
330
1F
100
AcDbEntity
  8
0
  6
Continuous
 62
     7
370
    25
100
AcDbLine
 10
214.2420224067
 20
10.0702772365
 30
0.0
 11
245.7082741695
 21
-8.0948032515
 31
0.0
  0
LINE
  5
10F
330
1F
100
AcDbEntity
  8
0
  6
Continuous
 62
     7
370
    25
100
AcDbLine
 10
289.0211592526
 20
14.184906657
 30
0.0
 11
286.4666064775
 21
15.659618584
 31
0.0
  0
LINE
  5
110
330
1F
100
AcDbEntity
  8
0
  6
Continuous
 62
     7
370
    25
100
AcDbLine
 10
267.9756272217
 20
-22.0464083472
 30
0.0
 11
268.0728618038
 21
-22.1025406767
 31
0.0
  0
LINE
  5
111
330
1F
100
AcDbEntity
  8
0
  6
Continuous
 62
     7
370
    25
100
AcDbLine
 10
293.4052212959
 20
11.6540415104
 30
0.0
 11
293.2637999397
 21
11.7356823216
 31
0.0
  0
LINE
  5
112
330
1F
100
AcDbEntity
  8
0
  6
Continuous
 62
     7
370
    25
100
AcDbLine
 10
272.315502491
 20
-24.5517650122
 30
0.0
 11
272.4569238472
 21
-24.6334058234
 31
0.0
  0
LWPOLYLINE
  5
113
330
1F
100
AcDbEntity
  8
0
  6
Continuous
 62
     7
370
    25
100
AcDbPolyline
 90
       90
 70
   128
 43
0.0
 10
212.7153691997
 20
20.7375283728
 10
212.7440797786
 20
21.692949041
 10
212.8300684806
 20
22.6767583804
 10
212.9729069143
 20
23.6840551021
 10
213.1718834659
 20
24.7098209047
 10
213.4260068441
 20
25.7489454746
 10
213.7340110191
 20
26.7962519452
 10
214.0943615295
 20
27.8465226887
 10
214.5052631273
 20
28.8945253088
 10
214.9646687214
 20
29.9350387093
 10
215.4702895761
 20
30.9628791047
 10
216.0196067139
 20
31.9729258459
 10
216.6098834643
 20
32.9601469309
 10
217.2381790984
 20
33.9196240739
 10
217.9013634788
 20
34.8465772079
 10
218.5961326544
 20
35.7363882991
 10
219.31902532
 20
36.5846243534
 10
220.0664400607
 20
37.3870595015
 10
220.834653294
 20
38.1396960518
 10
221.6198378201
 20
38.8387844069
 10
222.4180818892
 20
39.4808417437
 10
223.2254086895
 20
40.0626693649
 10
224.0377961595
 20
40.5813686346
 10
224.8511970257
 20
41.034355419
 10
225.6615589659
 20
41.4193729609
 10
226.4648447977
 20
41.7345031222
 10
227.2570525914
 20
41.9781759402
 10
228.0342356078
 20
42.1491774493
 10
228.79252196
 20
42.2466557285
 10
229.5281339036
 20
42.2701251459
 10
230.2374066569
 20
42.2194687782
 10
230.9168066588
 20
42.0949389927
 10
231.5629491726
 20
41.8971561906
 10
232.1726151488
 20
41.6271057159
 10
232.7427672622
 20
41.2861329464
 10
233.2705650436
 20
40.8759365914
 10
233.7533790311
 20
40.3985602284
 10
234.1888038695
 20
39.8563821225
 10
234.5746702944
 20
39.2521033777
 10
234.9090559386
 20
38.5887344803
 10
235.1902949095
 20
37.8695803009
 10
235.4169860889
 20
37.0982236293
 10
235.5880001126
 20
36.2785073257
 10
235.7024849974
 20
35.4145151754
 10
235.7598703854
 20
34.510551544
 10
235.7598703854
 20
33.5711199328
 10
235.7024849974
 20
32.6009005427
 10
235.5880001126
 20
31.6047269581
 10
235.4169860889
 20
30.5875620655
 10
235.1902949095
 20
29.5544733293
 10
234.9090559386
 20
28.5106075457
 10
234.5746702944
 20
27.4611652014
 10
234.1888038695
 20
26.4113745654
 10
233.7533790311
 20
25.3664656419
 10
233.2705650436
 20
24.3316441145
 10
232.7427672622
 20
23.3120654122
 10
232.1726151488
 20
22.3128090245
 10
231.5629491726
 20
21.3388531967
 10
230.9168066588
 20
20.3950501277
 10
230.2374066569
 20
19.4861017969
 10
229.5281339036
 20
18.6165365391
 10
228.79252196
 20
17.7906864847
 10
228.0342356078
 20
17.0126659772
 10
227.2570525914
 20
16.2863510755
 10
226.4648447977
 20
15.6153602441
 10
225.6615589659
 20
15.0030363254
 10
224.8511970257
 20
14.4524298864
 10
224.0377961595
 20
13.9662840208
 10
223.2254086895
 20
13.5470206826
 10
222.4180818892
 20
13.1967286209
 10
221.6198378201
 20
12.9171529731
 10
220.834653294
 20
12.7096865709
 10
220.0664400607
 20
12.5753630015
 10
219.31902532
 20
12.5148514583
 10
218.5961326544
 20
12.5284534066
 10
217.9013634788
 20
12.6161010822
 10
217.2381790984
 20
12.7773578289
 10
216.6098834643
 20
13.0114202736
 10
216.0196067139
 20
13.3171223291
 10
215.4702895761
 20
13.692941003
 10
214.9646687214
 20
14.1370039856
 10
214.5052631273
 20
14.6470989774
 10
214.0943615295
 20
15.220684711
 10
213.7340110191
 20
15.854903611
 10
213.4260068441
 20
16.5465960307
 10
213.1718834659
 20
17.2923159933
 10
212.9729069143
 20
18.0883483595
 10
212.8300684806
 20
18.9307273361
 10
212.7440797786
 20
19.8152562333
 10
212.7153691997
 20
20.7375283728
  0
LWPOLYLINE
  5
114
330
1F
100
AcDbEntity
  8
0
  6
Continuous
 62
     7
370
    25
100
AcDbPolyline
 90
       99
 70
   128
 43
0.0
 10
210.0990741094
 20
19.2271733659
 10
210.1281306437
 20
20.290266335
 10
210.2151808473
 20
21.3825387875
 10
210.3598670122
 20
22.4995023417
 10
210.5615945918
 20
23.6365671547
 10
210.8195346444
 20
24.7890607834
 10
211.1326272388
 20
25.9522473841
 10
211.4995858104
 20
27.1213471737
 10
211.9189024479
 20
28.2915560703
 10
212.3888540891
 20
29.4580654345
 10
212.9075096019
 20
30.6160818293
 10
213.4727377197
 20
31.7608467167
 10
214.0822157988
 20
32.8876560124
 10
214.7334393631
 20
33.9918794153
 10
215.4237323952
 20
35.0689794344
 10
216.150258333
 20
36.1145300349
 10
216.9100317257
 20
37.124234825
 10
217.6999305013
 20
38.0939447112
 10
218.5167087964
 20
39.0196749475
 10
219.3570102938
 20
39.8976215098
 10
220.2173820143
 20
40.7241767275
 10
221.094288506
 20
41.4959441077
 10
221.984126372
 20
42.2097522928
 10
222.8832390777
 20
42.8626680919
 10
223.7879319761
 20
43.4520085338
 10
224.6944874901
 20
43.9753518923
 10
225.5991803885
 20
44.4305476373
 10
226.4982930942
 20
44.8157252718
 10
227.3881309602
 20
45.1293020183
 10
228.2650374519
 20
45.3699893227
 10
229.1254091724
 20
45.5367981492
 10
229.9657106697
 20
45.6290430446
 10
230.7824889648
 20
45.6463449548
 10
231.5723877405
 20
45.5886327826
 10
232.3321611331
 20
45.4561436796
 10
233.058687071
 20
45.249422072
 10
233.7489801031
 20
44.9693174232
 10
234.4002036674
 20
44.6169807433
 10
235.0096817465
 20
44.1938598593
 10
235.5749098642
 20
43.7016934656
 10
236.0935653771
 20
43.1425039796
 10
236.5635170183
 20
42.5185892308
 10
236.9828336557
 20
41.8325130188
 10
237.3497922274
 20
41.0870945777
 10
237.6628848218
 20
40.285396992
 10
237.9208248743
 20
39.4307146089
 10
238.122552454
 20
38.5265595017
 10
238.2672386188
 20
37.5766470377
 10
238.3542888224
 20
36.5848806109
 10
238.3833453568
 20
35.5553356024
 10
238.3542888224
 20
34.4922426333
 10
238.2672386188
 20
33.3999701808
 10
238.122552454
 20
32.2830066266
 10
237.9208248743
 20
31.1459418136
 10
237.6628848218
 20
29.9934481849
 10
237.3497922274
 20
28.8302615842
 10
236.9828336557
 20
27.6611617946
 10
236.5635170183
 20
26.490952898
 10
236.0935653771
 20
25.3244435338
 10
235.5749098642
 20
24.166427139
 10
235.0096817465
 20
23.0216622516
 10
234.4002036674
 20
21.8948529559
 10
233.7489801031
 20
20.790629553
 10
233.058687071
 20
19.7135295339
 10
232.3321611331
 20
18.6679789334
 10
231.5723877405
 20
17.6582741433
 10
230.7824889648
 20
16.6885642571
 10
229.9657106697
 20
15.7628340208
 10
229.1254091724
 20
14.8848874585
 10
228.2650374519
 20
14.0583322408
 10
227.3881309602
 20
13.2865648606
 10
226.4982930942
 20
12.5727566755
 10
225.5991803885
 20
11.9198408764
 10
224.6944874901
 20
11.3305004345
 10
223.7879319761
 20
10.807157076
 10
222.8832390777
 20
10.351961331
 10
221.984126372
 20
9.9667836965
 10
221.094288506
 20
9.65320695
 10
220.2173820143
 20
9.4125196456
 10
219.3570102938
 20
9.2457108191
 10
218.5167087964
 20
9.1534659237
 10
217.6999305013
 20
9.1361640135
 10
216.9100317257
 20
9.1938761857
 10
216.150258333
 20
9.3263652887
 10
215.4237323952
 20
9.5330868963
 10
214.7334393631
 20
9.8131915451
 10
214.0822157988
 20
10.165528225
 10
213.4727377197
 20
10.588649109
 10
212.9075096019
 20
11.0808155027
 10
212.3888540891
 20
11.6400049887
 10
211.9189024479
 20
12.2639197375
 10
211.4995858104
 20
12.9499959495
 10
211.1326272388
 20
13.6954143906
 10
210.8195346444
 20
14.4971119763
 10
210.5615945918
 20
15.3517943594
 10
210.3598670122
 20
16.2559494666
 10
210.2151808473
 20
17.2058619306
 10
210.1281306437
 20
18.1976283574
 10
210.0990741094
 20
19.2271733659
  0
LWPOLYLINE
  5
115
330
1F
100
AcDbEntity
  8
0
  6
Continuous
 62
     7
370
    25
100
AcDbPolyline
 90
       51
 70
   128
 43
0.0
 10
265.7066488222
 20
26.5471512437
 10
265.8664554302
 20
26.4519002552
 10
266.4759335093
 20
26.0287793712
 10
267.041161627
 20
25.5366129776
 10
267.5598171399
 20
24.9774234916
 10
268.0297687811
 20
24.3535087428
 10
268.4490854185
 20
23.6674325307
 10
268.8160439902
 20
22.9220140897
 10
269.1291365846
 20
22.1203165039
 10
269.3870766371
 20
21.2656341209
 10
269.5888042168
 20
20.3614790137
 10
269.7334903816
 20
19.4115665497
 10
269.8205405852
 20
18.4198001229
 10
269.8495971196
 20
17.3902551143
 10
269.8205405852
 20
16.3271621453
 10
269.7334903816
 20
15.2348896927
 10
269.5888042168
 20
14.1179261385
 10
269.3870766371
 20
12.9808613255
 10
269.1291365846
 20
11.8283676969
 10
268.8160439902
 20
10.6651810961
 10
268.4490854185
 20
9.4960813066
 10
268.0297687811
 20
8.32587241
 10
267.5598171399
 20
7.1593630457
 10
267.041161627
 20
6.001346651
 10
266.4759335093
 20
4.8565817635
 10
265.8664554302
 20
3.7297724678
 10
265.2152318659
 20
2.625549065
 10
264.5249388338
 20
1.5484490458
 10
263.7984128959
 20
0.5028984453
 10
263.0386395033
 20
-0.5068063448
 10
262.2487407276
 20
-1.476516231
 10
261.4319624325
 20
-2.4022464673
 10
260.5916609352
 20
-3.2801930296
 10
259.7312892147
 20
-4.1067482472
 10
258.854382723
 20
-4.8785156274
 10
257.964544857
 20
-5.5923238126
 10
257.0654321513
 20
-6.2452396116
 10
256.1607392529
 20
-6.8345800535
 10
255.2541837389
 20
-7.3579234121
 10
254.3494908405
 20
-7.8131191571
 10
253.4503781348
 20
-8.1982967916
 10
252.5605402688
 20
-8.5118735381
 10
251.6836337771
 20
-8.7525608425
 10
250.8232620566
 20
-8.919369669
 10
249.9829605592
 20
-9.0116145644
 10
249.1661822641
 20
-9.0289164746
 10
248.3762834885
 20
-8.9712043023
 10
247.6165100958
 20
-8.8387151993
 10
246.889984158
 20
-8.6319935917
 10
246.1996911259
 20
-8.3518889429
 10
245.7082741695
 20
-8.0948032515
  0
LWPOLYLINE
  5
116
330
1F
100
AcDbEntity
  8
0
  6
Continuous
 62
     7
370
    25
100
AcDbPolyline
 90
       29
 70
   128
 43
0.0
 10
219.7864370116
 20
16.6554878137
 10
219.8151475905
 20
17.6109084819
 10
219.9011362925
 20
18.5947178212
 10
220.0439747262
 20
19.602014543
 10
220.2429512778
 20
20.6277803456
 10
220.497074656
 20
21.6669049154
 10
220.8050788309
 20
22.7142113861
 10
221.1654293414
 20
23.7644821296
 10
221.5763309392
 20
24.8124847497
 10
222.0357365332
 20
25.8529981502
 10
222.541357388
 20
26.8808385456
 10
223.0906745257
 20
27.8908852868
 10
223.6809512762
 20
28.8781063718
 10
224.3092469103
 20
29.8375835147
 10
224.9724312907
 20
30.7645366488
 10
225.6672004662
 20
31.65434774
 10
226.3900931318
 20
32.5025837943
 10
227.1375078726
 20
33.3050189424
 10
227.9057211059
 20
34.0576554927
 10
228.690905632
 20
34.7567438478
 10
229.4891497011
 20
35.3988011846
 10
230.2964765014
 20
35.9806288058
 10
231.1088639714
 20
36.4993280755
 10
231.9222648376
 20
36.9523148599
 10
232.7326267778
 20
37.3373324018
 10
233.5359126096
 20
37.652462563
 10
234.3281204033
 20
37.8961353811
 10
235.1053034196
 20
38.0671368901
 10
235.1194793021
 20
38.0696036098
  0
ARC
  5
117
330
1F
100
AcDbEntity
  8
0
  6
Continuous
 62
     7
370
    25
100
AcDbCircle
 10
231.5208895397
 20
16.479178495
 30
0.0
 40
11.73577697088216
100
AcDbArc
 50
179.139199739
 51
199.142151228
  0
LWPOLYLINE
  5
118
330
1F
100
AcDbEntity
  8
0
  6
Continuous
 62
     7
370
    25
100
AcDbPolyline
 90
       27
 70
   128
 43
0.0
 10
221.6249146427
 20
16.6554878137
 10
221.653879433
 20
17.5767628723
 10
221.7406156081
 20
18.5264482811
 10
221.8846494452
 20
19.4993571876
 10
222.0851942814
 20
20.4901759007
 10
222.3411548103
 20
21.4934929123
 10
222.6511330643
 20
22.5038284527
 10
223.0134360497
 20
23.5156644195
 10
223.4260849932
 20
24.5234745157
 10
223.8868261493
 20
25.5217544318
 10
224.3931431096
 20
26.5050519093
 10
224.9422705466
 20
27.4679965182
 10
225.5312093164
 20
28.4053289891
 10
226.1567428399
 20
29.3119299369
 10
226.8154546697
 20
30.1828478218
 10
227.5037471504
 20
31.0133259922
 10
228.2178610671
 20
31.7988286644
 10
228.9538961771
 20
32.5350656951
 10
229.707832512
 20
33.218016013
 10
230.475552333
 20
33.8439495803
 10
231.2528626205
 20
34.4094477649
 10
232.0355179754
 20
34.9114220118
 10
232.8192438055
 20
35.3471307118
 10
233.5997596721
 20
35.7141941749
 10
234.3728026682
 20
36.010607628
 10
235.1341507011
 20
36.2347521634
 10
235.5786151777
 20
36.33305966
  0
ARC
  5
119
330
1F
100
AcDbEntity
  8
0
  6
Continuous
 62
     7
370
    25
100
AcDbCircle
 10
232.4738237552
 20
16.4933172947
 30
0.0
 40
10.8501211149752
100
AcDbArc
 50
179.1436010542
 51
198.2153956167
  0
LINE
  5
11A
330
1F
100
AcDbEntity
  8
0
  6
Continuous
 62
     7
370
    25
100
AcDbLine
 10
255.7074614959
 20
-16.702479169
 30
0.0
 11
236.2620250133
 21
-14.963764124
 31
0.0
  0
LINE
  5
11B
330
1F
100
AcDbEntity
  8
0
  6
Continuous
 62
     7
370
    25
100
AcDbLine
 10
236.2620250133
 20
-14.963764124
 30
0.0
 11
236.2620250133
 21
-2.6415996883
 31
0.0
  0
LINE
  5
11C
330
1F
100
AcDbEntity
  8
0
  6
Continuous
 62
     7
370
    25
100
AcDbLine
 10
254.1507152861
 20
33.2182496758
 30
0.0
 11
255.7074614959
 21
35.1548271612
 31
0.0
  0
LINE
  5
11D
330
1F
100
AcDbEntity
  8
0
  6
Continuous
 62
     7
370
    25
100
AcDbLine
 10
255.7074614959
 20
35.1548271612
 30
0.0
 11
275.1528979785
 21
33.4161121162
 31
0.0
  0
LINE
  5
11E
330
1F
100
AcDbEntity
  8
0
  6
Continuous
 62
     7
370
    25
100
AcDbLine
 10
275.1528979785
 20
33.4161121162
 30
0.0
 11
275.1528979785
 21
7.4874589511
 31
0.0
  0
LINE
  5
11F
330
1F
100
AcDbEntity
  8
0
  6
Continuous
 62
     7
370
    25
100
AcDbLine
 10
275.1528979785
 20
7.4874589511
 30
0.0
 11
255.7074614959
 21
-16.702479169
 31
0.0
  0
LINE
  5
120
330
1F
100
AcDbEntity
  8
0
  6
Continuous
 62
     7
370
    25
100
AcDbLine
 10
255.7074614959
 20
-16.702479169
 30
0.0
 11
267.0211699949
 21
-23.2337440635
 31
0.0
  0
LINE
  5
121
330
1F
100
AcDbEntity
  8
0
  6
Continuous
 62
     7
370
    25
100
AcDbLine
 10
275.1528979785
 20
7.4874589511
 30
0.0
 11
286.4666064775
 21
0.9561940565
 31
0.0
  0
LINE
  5
122
330
1F
100
AcDbEntity
  8
0
  6
Continuous
 62
     7
370
    25
100
AcDbLine
 10
267.0211699949
 20
-23.2337440635
 30
0.0
 11
286.4666064775
 21
0.9561940565
 31
0.0
  0
LINE
  5
123
330
1F
100
AcDbEntity
  8
0
  6
Continuous
 62
     7
370
    25
100
AcDbLine
 10
275.1528979785
 20
33.4161121162
 30
0.0
 11
286.4666064775
 21
26.8848472216
 31
0.0
  0
LINE
  5
124
330
1F
100
AcDbEntity
  8
0
  6
Continuous
 62
     7
370
    25
100
AcDbLine
 10
286.4666064775
 20
0.9561940565
 30
0.0
 11
286.4666064775
 21
26.8848472216
 31
0.0
  0
LINE
  5
125
330
1F
100
AcDbEntity
  8
0
  6
Continuous
 62
     7
370
    25
100
AcDbLine
 10
236.2620250133
 20
-14.963764124
 30
0.0
 11
247.5757335122
 21
-21.4950290186
 31
0.0
  0
LINE
  5
126
330
1F
100
AcDbEntity
  8
0
  6
Continuous
 62
     7
370
    25
100
AcDbLine
 10
247.5757335122
 20
-21.4950290186
 30
0.0
 11
267.0211699949
 21
-23.2337440635
 31
0.0
  0
LWPOLYLINE
  5
127
330
1F
100
AcDbEntity
  8
0
  6
Continuous
 62
     7
370
    25
100
AcDbPolyline
 90
       53
 70
   128
 43
0.0
 10
289.0211592526
 20
14.184906657
 10
289.103148898
 20
14.1368282903
 10
289.7288723035
 20
13.7169967
 10
290.3113352581
 20
13.2287808204
 10
290.8482843257
 20
12.6740694638
 10
291.3376421548
 20
12.0550087006
 10
291.7775155148
 20
11.3739935567
 10
292.1662026213
 20
10.6336587474
 10
292.5021997194
 20
9.8368684842
 10
292.7842069016
 20
8.9867053939
 10
293.0111331367
 20
8.0864585923
 10
293.1821004915
 20
7.1396109594
 10
293.2964475262
 20
6.1498256647
 10
293.3537318546
 20
5.1209319953
 10
293.3537318546
 20
4.0569105409
 10
293.2964475262
 20
2.9618777939
 10
293.1821004915
 20
1.840070223
 10
293.0111331367
 20
0.695827884
 10
292.7842069016
 20
-0.4664223718
 10
292.5021997194
 20
-1.642184024
 10
292.1662026213
 20
-2.8269082793
 10
291.7775155148
 20
-4.0160116695
 10
291.3376421548
 20
-5.2048937846
 10
290.8482843257
 20
-6.3889550708
 10
290.3113352581
 20
-7.563614625
 10
289.7288723035
 20
-8.7243279174
 10
289.103148898
 20
-9.866604374
 10
288.4365858439
 20
-10.9860247489
 10
287.731761944
 20
-12.0782582223
 10
286.9914040253
 20
-13.1390791549
 10
286.2183763886
 20
-14.1643834367
 10
285.4156697276
 20
-15.1502043646
 10
284.5863895586
 20
-16.092727989
 10
283.7337442053
 20
-16.988307869
 10
282.8610323871
 20
-17.83347918
 10
281.9716304563
 20
-18.6249721185
 10
281.0689793364
 20
-19.3597245521
 10
280.156571209
 20
-20.0348938663
 10
279.2379360041
 20
-20.6478679621
 10
278.3166277428
 20
-21.196275362
 10
277.3962107876
 20
-21.6779943842
 10
276.4802460531
 20
-22.0911613513
 10
275.5722772289
 20
-22.4341778008
 10
274.6758170699
 20
-22.7057166685
 10
273.7943338063
 20
-22.9047274233
 10
272.9312377257
 20
-23.0304401313
 10
272.0898679791
 20
-23.0823684344
 10
271.2734796627
 20
-23.0603114321
 10
270.4852312241
 20
-22.9643544588
 10
269.7281722435
 20
-22.7948687531
 10
269.005231635
 20
-22.5525100226
 10
268.3192063155
 20
-22.2382159058
 10
268.0728618038
 20
-22.1025406767
  0
LWPOLYLINE
  5
128
330
1F
100
AcDbEntity
  8
0
  6
Continuous
 62
     7
370
    25
100
AcDbPolyline
 90
       55
 70
   128
 43
0.0
 10
289.7043782632
 20
13.7353232852
 10
289.8507994063
 20
13.6702432324
 10
290.5173624604
 20
13.3204201784
 10
291.1430858659
 20
12.9005885882
 10
291.7255488205
 20
12.4123727086
 10
292.2624978881
 20
11.857661352
 10
292.7518557171
 20
11.2386005888
 10
293.1917290772
 20
10.5575854449
 10
293.5804161837
 20
9.8172506356
 10
293.9164132818
 20
9.0204603724
 10
294.1984204639
 20
8.1702972821
 10
294.4253466991
 20
7.2700504805
 10
294.5963140538
 20
6.3232028476
 10
294.7106610886
 20
5.3334175529
 10
294.7679454169
 20
4.3045238835
 10
294.7679454169
 20
3.2405024291
 10
294.7106610886
 20
2.145469682
 10
294.5963140538
 20
1.0236621112
 10
294.4253466991
 20
-0.1205802278
 10
294.1984204639
 20
-1.2828304836
 10
293.9164132818
 20
-2.4585921359
 10
293.5804161837
 20
-3.6433163911
 10
293.1917290772
 20
-4.8324197813
 10
292.7518557171
 20
-6.0213018965
 10
292.2624978881
 20
-7.2053631827
 10
291.7255488205
 20
-8.3800227368
 10
291.1430858659
 20
-9.5407360293
 10
290.5173624604
 20
-10.6830124858
 10
289.8507994063
 20
-11.8024328607
 10
289.1459755064
 20
-12.8946663341
 10
288.4056175877
 20
-13.9554872667
 10
287.6325899509
 20
-14.9807915485
 10
286.82988329
 20
-15.9666124764
 10
286.0006031209
 20
-16.9091361008
 10
285.1479577677
 20
-17.8047159808
 10
284.2752459494
 20
-18.6498872918
 10
283.3858440187
 20
-19.4413802304
 10
282.4831928987
 20
-20.1761326639
 10
281.5707847714
 20
-20.8513019781
 10
280.6521495665
 20
-21.464276074
 10
279.7308413051
 20
-22.0126834738
 10
278.81042435
 20
-22.494402496
 10
277.8944596155
 20
-22.9075694632
 10
276.9864907913
 20
-23.2505859126
 10
276.0900306323
 20
-23.5221247803
 10
275.2085473687
 20
-23.7211355351
 10
274.3454512881
 20
-23.8468482431
 10
273.5040815415
 20
-23.8987765462
 10
272.687693225
 20
-23.876719544
 10
271.8994447865
 20
-23.7807625706
 10
271.1423858059
 20
-23.611276865
 10
270.4194451974
 20
-23.3689181344
 10
269.7334198778
 20
-23.0546240177
 10
269.0869639458
 20
-22.6696104577
 10
268.8038563556
 20
-22.4693654167
  0
LWPOLYLINE
  5
129
330
1F
100
AcDbEntity
  8
0
  6
Continuous
 62
     7
370
    25
100
AcDbPolyline
 90
       55
 70
   128
 43
0.0
 10
291.1185918255
 20
12.9189151734
 10
291.2650129686
 20
12.8538351205
 10
291.9315760228
 20
12.5040120666
 10
292.5572994283
 20
12.0841804764
 10
293.1397623829
 20
11.5959645968
 10
293.6767114505
 20
11.0412532401
 10
294.1660692795
 20
10.4221924769
 10
294.6059426396
 20
9.741177333
 10
294.9946297461
 20
9.0008425237
 10
295.3306268442
 20
8.2040522605
 10
295.6126340263
 20
7.3538891702
 10
295.8395602615
 20
6.4536423686
 10
296.0105276162
 20
5.5067947357
 10
296.124874651
 20
4.5170094411
 10
296.1821589793
 20
3.4881157717
 10
296.1821589793
 20
2.4240943173
 10
296.124874651
 20
1.3290615702
 10
296.0105276162
 20
0.2072539994
 10
295.8395602615
 20
-0.9369883396
 10
295.6126340263
 20
-2.0992385955
 10
295.3306268442
 20
-3.2750002477
 10
294.9946297461
 20
-4.4597245029
 10
294.6059426396
 20
-5.6488278931
 10
294.1660692795
 20
-6.8377100083
 10
293.6767114505
 20
-8.0217712945
 10
293.1397623829
 20
-9.1964308486
 10
292.5572994283
 20
-10.3571441411
 10
291.9315760228
 20
-11.4994205976
 10
291.2650129686
 20
-12.6188409726
 10
290.5601890688
 20
-13.7110744459
 10
289.81983115
 20
-14.7718953785
 10
289.0468035133
 20
-15.7971996603
 10
288.2440968523
 20
-16.7830205882
 10
287.4148166833
 20
-17.7255442126
 10
286.56217133
 20
-18.6211240926
 10
285.6894595118
 20
-19.4662954037
 10
284.8000575811
 20
-20.2577883422
 10
283.8974064611
 20
-20.9925407757
 10
282.9849983338
 20
-21.6677100899
 10
282.0663631289
 20
-22.2806841858
 10
281.1450548675
 20
-22.8290915856
 10
280.2246379124
 20
-23.3108106078
 10
279.3086731779
 20
-23.723977575
 10
278.4007043536
 20
-24.0669940244
 10
277.5042441946
 20
-24.3385328921
 10
276.6227609311
 20
-24.5375436469
 10
275.7596648505
 20
-24.6632563549
 10
274.9182951039
 20
-24.715184658
 10
274.1019067874
 20
-24.6931276558
 10
273.3136583488
 20
-24.5971706824
 10
272.5565993683
 20
-24.4276849768
 10
271.8336587598
 20
-24.1853262462
 10
271.1476334402
 20
-23.8710321295
 10
270.5011775082
 20
-23.4860185695
 10
270.218069918
 20
-23.2857735286
  0
LWPOLYLINE
  5
12A
330
1F
100
AcDbEntity
  8
0
  6
Continuous
 62
     7
370
    25
100
AcDbPolyline
 90
       55
 70
   128
 43
0.0
 10
292.5328053879
 20
12.1025070616
 10
292.679226531
 20
12.0374270087
 10
293.3457895852
 20
11.6876039548
 10
293.9715129907
 20
11.2677723646
 10
294.5539759452
 20
10.779556485
 10
295.0909250129
 20
10.2248451283
 10
295.5802828419
 20
9.6057843651
 10
296.0201562019
 20
8.9247692212
 10
296.4088433085
 20
8.1844344119
 10
296.7448404065
 20
7.3876441487
 10
297.0268475887
 20
6.5374810584
 10
297.2537738239
 20
5.6372342568
 10
297.4247411786
 20
4.6903866239
 10
297.5390882133
 20
3.7006013293
 10
297.5963725417
 20
2.6717076599
 10
297.5963725417
 20
1.6076862055
 10
297.5390882133
 20
0.5126534584
 10
297.4247411786
 20
-0.6091541124
 10
297.2537738239
 20
-1.7533964514
 10
297.0268475887
 20
-2.9156467073
 10
296.7448404065
 20
-4.0914083595
 10
296.4088433085
 20
-5.2761326147
 10
296.0201562019
 20
-6.4652360049
 10
295.5802828419
 20
-7.6541181201
 10
295.0909250129
 20
-8.8381794063
 10
294.5539759452
 20
-10.0128389605
 10
293.9715129907
 20
-11.1735522529
 10
293.3457895852
 20
-12.3158287095
 10
292.679226531
 20
-13.4352490844
 10
291.9744026312
 20
-14.5274825577
 10
291.2340447124
 20
-15.5883034903
 10
290.4610170757
 20
-16.6136077722
 10
289.6583104147
 20
-17.5994287001
 10
288.8290302457
 20
-18.5419523244
 10
287.9763848924
 20
-19.4375322044
 10
287.1036730742
 20
-20.2827035155
 10
286.2142711434
 20
-21.074196454
 10
285.3116200235
 20
-21.8089488876
 10
284.3992118962
 20
-22.4841182017
 10
283.4805766912
 20
-23.0970922976
 10
282.5592684299
 20
-23.6454996975
 10
281.6388514747
 20
-24.1272187196
 10
280.7228867403
 20
-24.5403856868
 10
279.814917916
 20
-24.8834021362
 10
278.918457757
 20
-25.1549410039
 10
278.0369744935
 20
-25.3539517587
 10
277.1738784129
 20
-25.4796644667
 10
276.3325086663
 20
-25.5315927699
 10
275.5161203498
 20
-25.5095357676
 10
274.7278719112
 20
-25.4135787942
 10
273.9708129306
 20
-25.2440930886
 10
273.2478723222
 20
-25.001734358
 10
272.5618470026
 20
-24.6874402413
 10
271.9153910706
 20
-24.3024266814
 10
271.6322834804
 20
-24.1021816404
  0
LWPOLYLINE
  5
12B
330
1F
100
AcDbEntity
  8
0
  6
Continuous
 62
     7
370
    25
100
AcDbPolyline
 90
       53
 70
   128
 43
0.0
 10
293.4052212959
 20
11.6540415104
 10
293.4872109414
 20
11.6059631436
 10
294.1129343469
 20
11.1861315534
 10
294.6953973015
 20
10.6979156738
 10
295.2323463691
 20
10.1432043171
 10
295.7217041981
 20
9.5241435539
 10
296.1615775582
 20
8.84312841
 10
296.5502646647
 20
8.1027936007
 10
296.8862617628
 20
7.3060033375
 10
297.1682689449
 20
6.4558402472
 10
297.3951951801
 20
5.5555934456
 10
297.5661625348
 20
4.6087458127
 10
297.6805095696
 20
3.6189605181
 10
297.7377938979
 20
2.5900668487
 10
297.7377938979
 20
1.5260453943
 10
297.6805095696
 20
0.4310126472
 10
297.5661625348
 20
-0.6907949236
 10
297.3951951801
 20
-1.8350372626
 10
297.1682689449
 20
-2.9972875185
 10
296.8862617628
 20
-4.1730491707
 10
296.5502646647
 20
-5.3577734259
 10
296.1615775582
 20
-6.5468768161
 10
295.7217041981
 20
-7.7357589313
 10
295.2323463691
 20
-8.9198202175
 10
294.6953973015
 20
-10.0944797716
 10
294.1129343469
 20
-11.2551930641
 10
293.4872109414
 20
-12.3974695206
 10
292.8206478872
 20
-13.5168898956
 10
292.1158239874
 20
-14.6091233689
 10
291.3754660686
 20
-15.6699443015
 10
290.6024384319
 20
-16.6952485833
 10
289.799731771
 20
-17.6810695112
 10
288.9704516019
 20
-18.6235931356
 10
288.1178062487
 20
-19.5191730156
 10
287.2450944304
 20
-20.3643443267
 10
286.3556924997
 20
-21.1558372652
 10
285.4530413797
 20
-21.8905896988
 10
284.5406332524
 20
-22.5657590129
 10
283.6219980475
 20
-23.1787331088
 10
282.7006897861
 20
-23.7271405087
 10
281.780272831
 20
-24.2088595308
 10
280.8643080965
 20
-24.622026498
 10
279.9563392723
 20
-24.9650429474
 10
279.0598791133
 20
-25.2365818151
 10
278.1783958497
 20
-25.4355925699
 10
277.3152997691
 20
-25.5613052779
 10
276.4739300225
 20
-25.613233581
 10
275.657541706
 20
-25.5911765788
 10
274.8692932675
 20
-25.4952196054
 10
274.1122342869
 20
-25.3257338998
 10
273.3892936784
 20
-25.0833751692
 10
272.7032683588
 20
-24.7690810525
 10
272.4569238472
 20
-24.6334058234
  0
LINE
  5
12C
330
1F
100
AcDbEntity
  8
0
  6
Continuous
 62
     7
370
    25
100
AcDbLine
 10
118.8823425481
 20
58.6517682248
 30
0.0
 11
118.8823425481
 21
58.4517682248
 31
0.0
  0
LINE
  5
12D
330
1F
100
AcDbEntity
  8
0
  6
Continuous
 62
     7
370
    25
100
AcDbLine
 10
160.7823425481
 20
58.4517682248
 30
0.0
 11
160.7823425481
 21
58.6517682248
 31
0.0
  0
LINE
  5
12E
330
1F
100
AcDbEntity
  8
0
  6
Continuous
 62
     7
370
    25
100
AcDbLine
 10
118.8823425481
 20
58.4517682248
 30
0.0
 11
120.6143933556
 21
57.4517682248
 31
0.0
  0
LINE
  5
12F
330
1F
100
AcDbEntity
  8
0
  6
Continuous
 62
     7
370
    25
100
AcDbLine
 10
159.0502917405
 20
57.4517682248
 30
0.0
 11
160.7823425481
 21
58.4517682248
 31
0.0
  0
LINE
  5
130
330
1F
100
AcDbEntity
  8
0
  6
Continuous
 62
     7
370
    25
100
AcDbLine
 10
160.7823425481
 20
56.4517682248
 30
0.0
 11
159.0502917405
 21
57.4517682248
 31
0.0
  0
LINE
  5
131
330
1F
100
AcDbEntity
  8
0
  6
Continuous
 62
     7
370
    25
100
AcDbLine
 10
120.6143933556
 20
57.4517682248
 30
0.0
 11
118.8823425481
 21
56.4517682248
 31
0.0
  0
LINE
  5
132
330
1F
100
AcDbEntity
  8
0
  6
Continuous
 62
     7
370
    25
100
AcDbLine
 10
118.8823425481
 20
56.4517682248
 30
0.0
 11
120.6143933556
 21
55.4517682248
 31
0.0
  0
LINE
  5
133
330
1F
100
AcDbEntity
  8
0
  6
Continuous
 62
     7
370
    25
100
AcDbLine
 10
159.0502917405
 20
55.4517682248
 30
0.0
 11
160.7823425481
 21
56.4517682248
 31
0.0
  0
LINE
  5
134
330
1F
100
AcDbEntity
  8
0
  6
Continuous
 62
     7
370
    25
100
AcDbLine
 10
160.7823425481
 20
54.4517682248
 30
0.0
 11
159.0502917405
 21
55.4517682248
 31
0.0
  0
LINE
  5
135
330
1F
100
AcDbEntity
  8
0
  6
Continuous
 62
     7
370
    25
100
AcDbLine
 10
120.6143933556
 20
55.4517682248
 30
0.0
 11
118.8823425481
 21
54.4517682248
 31
0.0
  0
LINE
  5
136
330
1F
100
AcDbEntity
  8
0
  6
Continuous
 62
     7
370
    25
100
AcDbLine
 10
118.8823425481
 20
54.4517682248
 30
0.0
 11
120.6143933556
 21
53.4517682248
 31
0.0
  0
LINE
  5
137
330
1F
100
AcDbEntity
  8
0
  6
Continuous
 62
     7
370
    25
100
AcDbLine
 10
159.0502917405
 20
53.4517682248
 30
0.0
 11
160.7823425481
 21
54.4517682248
 31
0.0
  0
LINE
  5
138
330
1F
100
AcDbEntity
  8
0
  6
Continuous
 62
     7
370
    25
100
AcDbLine
 10
160.7823425481
 20
52.4517682248
 30
0.0
 11
159.0502917405
 21
53.4517682248
 31
0.0
  0
LINE
  5
139
330
1F
100
AcDbEntity
  8
0
  6
Continuous
 62
     7
370
    25
100
AcDbLine
 10
120.6143933556
 20
53.4517682248
 30
0.0
 11
118.8823425481
 21
52.4517682248
 31
0.0
  0
LINE
  5
13A
330
1F
100
AcDbEntity
  8
0
  6
Continuous
 62
     7
370
    25
100
AcDbLine
 10
118.8823425481
 20
52.4517682248
 30
0.0
 11
118.8823425481
 21
36.1517682248
 31
0.0
  0
LINE
  5
13B
330
1F
100
AcDbEntity
  8
0
  6
Continuous
 62
     7
370
    25
100
AcDbLine
 10
160.7823425481
 20
36.1517682248
 30
0.0
 11
160.7823425481
 21
52.4517682248
 31
0.0
  0
LINE
  5
13C
330
1F
100
AcDbEntity
  8
0
  6
Continuous
 62
     7
370
    25
100
AcDbLine
 10
119.8323425481
 20
20.1517682248
 30
0.0
 11
119.8323425481
 21
-24.3482317752
 31
0.0
  0
LINE
  5
13D
330
1F
100
AcDbEntity
  8
0
  6
Continuous
 62
     7
370
    25
100
AcDbLine
 10
159.8323425481
 20
-24.3482317752
 30
0.0
 11
159.8323425481
 21
20.1517682248
 31
0.0
  0
LINE
  5
13E
330
1F
100
AcDbEntity
  8
0
  6
Continuous
 62
     7
370
    25
100
AcDbLine
 10
139.8323425481
 20
20.1517682248
 30
0.0
 11
139.8323425481
 21
36.1517682248
 31
0.0
  0
LINE
  5
13F
330
1F
100
AcDbEntity
  8
0
  6
Continuous
 62
     7
370
    25
100
AcDbLine
 10
112.3323425481
 20
20.1517682248
 30
0.0
 11
139.8323425481
 21
20.1517682248
 31
0.0
  0
LINE
  5
140
330
1F
100
AcDbEntity
  8
0
  6
Continuous
 62
     7
370
    25
100
AcDbLine
 10
112.3323425481
 20
20.1517682248
 30
0.0
 11
112.3323425481
 21
36.1517682248
 31
0.0
  0
LINE
  5
141
330
1F
100
AcDbEntity
  8
0
  6
Continuous
 62
     7
370
    25
100
AcDbLine
 10
139.8323425481
 20
36.1517682248
 30
0.0
 11
112.3323425481
 21
36.1517682248
 31
0.0
  0
LINE
  5
142
330
1F
100
AcDbEntity
  8
0
  6
Continuous
 62
     7
370
    25
100
AcDbLine
 10
167.3323425481
 20
20.1517682248
 30
0.0
 11
167.3323425481
 21
36.1517682248
 31
0.0
  0
LINE
  5
143
330
1F
100
AcDbEntity
  8
0
  6
Continuous
 62
     7
370
    25
100
AcDbLine
 10
139.8323425481
 20
20.1517682248
 30
0.0
 11
167.3323425481
 21
20.1517682248
 31
0.0
  0
LINE
  5
144
330
1F
100
AcDbEntity
  8
0
  6
Continuous
 62
     7
370
    25
100
AcDbLine
 10
167.3323425481
 20
36.1517682248
 30
0.0
 11
139.8323425481
 21
36.1517682248
 31
0.0
  0
LINE
  5
145
330
1F
100
AcDbEntity
  8
0
  6
Continuous
 62
     7
370
    25
100
AcDbLine
 10
118.8823425481
 20
58.4517682248
 30
0.0
 11
160.7823425481
 21
58.4517682248
 31
0.0
  0
LINE
  5
146
330
1F
100
AcDbEntity
  8
0
  6
Continuous
 62
     7
370
    25
100
AcDbLine
 10
118.8823425481
 20
58.6517682248
 30
0.0
 11
160.7823425481
 21
58.6517682248
 31
0.0
  0
LINE
  5
147
330
1F
100
AcDbEntity
  8
0
  6
Continuous
 62
     7
370
    25
100
AcDbLine
 10
120.6143933556
 20
57.4517682248
 30
0.0
 11
159.0502917405
 21
57.4517682248
 31
0.0
  0
LINE
  5
148
330
1F
100
AcDbEntity
  8
0
  6
Continuous
 62
     7
370
    25
100
AcDbLine
 10
118.8823425481
 20
56.4517682248
 30
0.0
 11
160.7823425481
 21
56.4517682248
 31
0.0
  0
LINE
  5
149
330
1F
100
AcDbEntity
  8
0
  6
Continuous
 62
     7
370
    25
100
AcDbLine
 10
120.6143933556
 20
55.4517682248
 30
0.0
 11
159.0502917405
 21
55.4517682248
 31
0.0
  0
LINE
  5
14A
330
1F
100
AcDbEntity
  8
0
  6
Continuous
 62
     7
370
    25
100
AcDbLine
 10
118.8823425481
 20
54.4517682248
 30
0.0
 11
160.7823425481
 21
54.4517682248
 31
0.0
  0
LINE
  5
14B
330
1F
100
AcDbEntity
  8
0
  6
Continuous
 62
     7
370
    25
100
AcDbLine
 10
120.6143933556
 20
53.4517682248
 30
0.0
 11
159.0502917405
 21
53.4517682248
 31
0.0
  0
LINE
  5
14C
330
1F
100
AcDbEntity
  8
0
  6
Continuous
 62
     7
370
    25
100
AcDbLine
 10
118.8823425481
 20
52.4517682248
 30
0.0
 11
160.7823425481
 21
52.4517682248
 31
0.0
  0
LINE
  5
14D
330
1F
100
AcDbEntity
  8
0
  6
Continuous
 62
     7
370
    25
100
AcDbLine
 10
119.8323425481
 20
-24.3482317752
 30
0.0
 11
159.8323425481
 21
-24.3482317752
 31
0.0
  0
ENDSEC
  0
SECTION
  2
OBJECTS
  0
DICTIONARY
  5
C
330
0
100
AcDbDictionary
281
     1
  3
ACAD_GROUP
350
D
  3
ACAD_LAYOUT
350
1A
  3
ACAD_MLINESTYLE
350
17
  3
ACAD_PLOTSETTINGS
350
19
  3
ACAD_PLOTSTYLENAME
350
E
  3
ACAD_SCALELIST
350
47
  3
DWGPROPS
350
14E
  0
DICTIONARY
  5
D
102
{ACAD_REACTORS
330
C
102
}
330
C
100
AcDbDictionary
281
     1
  0
DICTIONARY
  5
1A
102
{ACAD_REACTORS
330
C
102
}
330
C
100
AcDbDictionary
281
     1
  3
Layout1
350
1E
  3
Layout2
350
26
  3
Model
350
22
  0
DICTIONARY
  5
17
102
{ACAD_REACTORS
330
C
102
}
330
C
100
AcDbDictionary
281
     1
  3
Standard
350
18
  0
DICTIONARY
  5
19
102
{ACAD_REACTORS
330
C
102
}
330
C
100
AcDbDictionary
281
     1
  0
ACDBDICTIONARYWDFLT
  5
E
102
{ACAD_REACTORS
330
C
102
}
330
C
100
AcDbDictionary
281
     1
  3
Normal
350
F
100
AcDbDictionaryWithDefault
340
F
  0
DICTIONARY
  5
47
102
{ACAD_REACTORS
330
C
102
}
330
C
100
AcDbDictionary
281
     1
  3
A0
350
48
  3
A1
350
49
  3
A2
350
4A
  3
A3
350
4B
  3
A4
350
4C
  3
A5
350
4D
  3
A6
350
4E
  3
A7
350
4F
  3
A8
350
50
  3
A9
350
51
  3
B0
350
52
  3
B1
350
53
  3
B2
350
54
  3
B3
350
55
  3
B4
350
56
  3
B5
350
57
  3
B6
350
58
  3
B7
350
59
  3
B8
350
5A
  3
B9
350
5B
  3
C0
350
5C
  3
C1
350
5D
  3
C2
350
5E
  3
C3
350
5F
  3
C4
350
60
  3
C5
350
61
  3
C6
350
62
  3
C7
350
63
  3
C8
350
64
  3
C9
350
65
  3
D0
350
66
  3
D1
350
67
  3
D2
350
68
  0
XRECORD
  5
14E
102
{ACAD_REACTORS
330
C
102
}
330
C
100
AcDbXrecord
280
     1
  1
DWGPROPS COOKIE
  2

  3

  4

  6

  7

  8
b.kav
  9

300
=
301
=
302
=
303
=
304
=
305
=
306
=
307
=
308
=
309
=
 40
0.0
 41
2459935.584194132
 42
2459935.584194317
  1

 90
        0
  0
LAYOUT
  5
1E
102
{ACAD_REACTORS
330
1A
102
}
330
1A
100
AcDbPlotSettings
  1

  2
none_device
  4

  6

 40
0.0
 41
0.0
 42
0.0
 43
0.0
 44
0.0
 45
0.0
 46
0.0
 47
0.0
 48
0.0
 49
0.0
140
0.0
141
0.0
142
1.0
143
1.0
 70
   688
 72
     1
 73
     0
 74
     5
  7

 75
    16
147
1.0
148
0.0
149
0.0
100
AcDbLayout
  1
Layout1
 70
     1
 71
     1
 10
0.0
 20
0.0
 11
420.0
 21
297.0
 12
0.0
 22
0.0
 32
0.0
 14
1.0000000000E+20
 24
1.0000000000E+20
 34
1.0000000000E+20
 15
-1.0000000000E+20
 25
-1.0000000000E+20
 35
-1.0000000000E+20
146
0.0
 13
0.0
 23
0.0
 33
0.0
 16
1.0
 26
0.0
 36
0.0
 17
0.0
 27
1.0
 37
0.0
 76
     0
330
1B
  0
LAYOUT
  5
26
102
{ACAD_REACTORS
330
1A
102
}
330
1A
100
AcDbPlotSettings
  1

  2
none_device
  4

  6

 40
0.0
 41
0.0
 42
0.0
 43
0.0
 44
0.0
 45
0.0
 46
0.0
 47
0.0
 48
0.0
 49
0.0
140
0.0
141
0.0
142
1.0
143
1.0
 70
   688
 72
     1
 73
     0
 74
     5
  7

 75
    16
147
1.0
148
0.0
149
0.0
100
AcDbLayout
  1
Layout2
 70
     1
 71
     2
 10
0.0
 20
0.0
 11
0.0
 21
0.0
 12
0.0
 22
0.0
 32
0.0
 14
0.0
 24
0.0
 34
0.0
 15
0.0
 25
0.0
 35
0.0
146
0.0
 13
0.0
 23
0.0
 33
0.0
 16
1.0
 26
0.0
 36
0.0
 17
0.0
 27
1.0
 37
0.0
 76
     0
330
23
  0
LAYOUT
  5
22
102
{ACAD_REACTORS
330
1A
102
}
330
1A
100
AcDbPlotSettings
  1

  2
none_device
  4
Letter_(8.50_x_11.00_Inches)
  6

 40
6.35
 41
6.35
 42
6.35000508
 43
6.35000508
 44
215.9
 45
279.4
 46
0.0
 47
0.0
 48
0.0
 49
0.0
140
0.0
141
0.0
142
1.0
143
1.0
 70
  1712
 72
     1
 73
     0
 74
     0
  7

 75
     0
147
1.0
148
0.0
149
0.0
100
AcDbLayout
  1
Model
 70
     1
 71
     0
 10
0.0
 20
0.0
 11
279.4
 21
215.9
 12
0.0
 22
0.0
 32
0.0
 14
0.0
 24
0.0
 34
0.0
 15
279.4
 25
215.9
 35
0.0
146
0.0
 13
0.0
 23
0.0
 33
0.0
 16
1.0
 26
0.0
 36
0.0
 17
0.0
 27
1.0
 37
0.0
 76
     0
330
1F
331
29
  0
MLINESTYLE
  5
18
102
{ACAD_REACTORS
330
17
102
}
330
17
100
AcDbMlineStyle
  2
Standard
 70
     0
  3

 62
   256
 51
90.0
 52
90.0
 71
     2
 49
0.5
 62
   256
  6
BYLAYER
 49
-0.5
 62
   256
  6
BYLAYER
  0
ACDBPLACEHOLDER
  5
F
102
{ACAD_REACTORS
330
E
102
}
330
E
  0
SCALE
  5
48
102
{ACAD_REACTORS
330
47
102
}
330
47
100
AcDbScale
 70
     0
300
1:1
140
1.0
141
1.0
290
     1
  0
SCALE
  5
49
102
{ACAD_REACTORS
330
47
102
}
330
47
100
AcDbScale
 70
     0
300
1:2
140
1.0
141
2.0
290
     0
  0
SCALE
  5
4A
102
{ACAD_REACTORS
330
47
102
}
330
47
100
AcDbScale
 70
     0
300
1:4
140
1.0
141
4.0
290
     0
  0
SCALE
  5
4B
102
{ACAD_REACTORS
330
47
102
}
330
47
100
AcDbScale
 70
     0
300
1:5
140
1.0
141
5.0
290
     0
  0
SCALE
  5
4C
102
{ACAD_REACTORS
330
47
102
}
330
47
100
AcDbScale
 70
     0
300
1:8
140
1.0
141
8.0
290
     0
  0
SCALE
  5
4D
102
{ACAD_REACTORS
330
47
102
}
330
47
100
AcDbScale
 70
     0
300
1:10
140
1.0
141
10.0
290
     0
  0
SCALE
  5
4E
102
{ACAD_REACTORS
330
47
102
}
330
47
100
AcDbScale
 70
     0
300
1:16
140
1.0
141
16.0
290
     0
  0
SCALE
  5
4F
102
{ACAD_REACTORS
330
47
102
}
330
47
100
AcDbScale
 70
     0
300
1:20
140
1.0
141
20.0
290
     0
  0
SCALE
  5
50
102
{ACAD_REACTORS
330
47
102
}
330
47
100
AcDbScale
 70
     0
300
1:30
140
1.0
141
30.0
290
     0
  0
SCALE
  5
51
102
{ACAD_REACTORS
330
47
102
}
330
47
100
AcDbScale
 70
     0
300
1:40
140
1.0
141
40.0
290
     0
  0
SCALE
  5
52
102
{ACAD_REACTORS
330
47
102
}
330
47
100
AcDbScale
 70
     0
300
1:50
140
1.0
141
50.0
290
     0
  0
SCALE
  5
53
102
{ACAD_REACTORS
330
47
102
}
330
47
100
AcDbScale
 70
     0
300
1:100
140
1.0
141
100.0
290
     0
  0
SCALE
  5
54
102
{ACAD_REACTORS
330
47
102
}
330
47
100
AcDbScale
 70
     0
300
2:1
140
2.0
141
1.0
290
     0
  0
SCALE
  5
55
102
{ACAD_REACTORS
330
47
102
}
330
47
100
AcDbScale
 70
     0
300
4:1
140
4.0
141
1.0
290
     0
  0
SCALE
  5
56
102
{ACAD_REACTORS
330
47
102
}
330
47
100
AcDbScale
 70
     0
300
8:1
140
8.0
141
1.0
290
     0
  0
SCALE
  5
57
102
{ACAD_REACTORS
330
47
102
}
330
47
100
AcDbScale
 70
     0
300
10:1
140
10.0
141
1.0
290
     0
  0
SCALE
  5
58
102
{ACAD_REACTORS
330
47
102
}
330
47
100
AcDbScale
 70
     0
300
100:1
140
100.0
141
1.0
290
     0
  0
SCALE
  5
59
102
{ACAD_REACTORS
330
47
102
}
330
47
100
AcDbScale
 70
     0
300
1/128" = 1'-0"
140
0.0078125
141
12.0
290
     0
  0
SCALE
  5
5A
102
{ACAD_REACTORS
330
47
102
}
330
47
100
AcDbScale
 70
     0
300
1/64" = 1'-0"
140
0.015625
141
12.0
290
     0
  0
SCALE
  5
5B
102
{ACAD_REACTORS
330
47
102
}
330
47
100
AcDbScale
 70
     0
300
1/32" = 1'-0"
140
0.03125
141
12.0
290
     0
  0
SCALE
  5
5C
102
{ACAD_REACTORS
330
47
102
}
330
47
100
AcDbScale
 70
     0
300
1/16" = 1'-0"
140
0.0625
141
12.0
290
     0
  0
SCALE
  5
5D
102
{ACAD_REACTORS
330
47
102
}
330
47
100
AcDbScale
 70
     0
300
3/32" = 1'-0"
140
0.09375
141
12.0
290
     0
  0
SCALE
  5
5E
102
{ACAD_REACTORS
330
47
102
}
330
47
100
AcDbScale
 70
     0
300
1/8" = 1'-0"
140
0.125
141
12.0
290
     0
  0
SCALE
  5
5F
102
{ACAD_REACTORS
330
47
102
}
330
47
100
AcDbScale
 70
     0
300
3/16" = 1'-0"
140
0.1875
141
12.0
290
     0
  0
SCALE
  5
60
102
{ACAD_REACTORS
330
47
102
}
330
47
100
AcDbScale
 70
     0
300
1/4" = 1'-0"
140
0.25
141
12.0
290
     0
  0
SCALE
  5
61
102
{ACAD_REACTORS
330
47
102
}
330
47
100
AcDbScale
 70
     0
300
3/8" = 1'-0"
140
0.375
141
12.0
290
     0
  0
SCALE
  5
62
102
{ACAD_REACTORS
330
47
102
}
330
47
100
AcDbScale
 70
     0
300
1/2" = 1'-0"
140
0.5
141
12.0
290
     0
  0
SCALE
  5
63
102
{ACAD_REACTORS
330
47
102
}
330
47
100
AcDbScale
 70
     0
300
3/4" = 1'-0"
140
0.75
141
12.0
290
     0
  0
SCALE
  5
64
102
{ACAD_REACTORS
330
47
102
}
330
47
100
AcDbScale
 70
     0
300
1" = 1'-0"
140
1.0
141
12.0
290
     0
  0
SCALE
  5
65
102
{ACAD_REACTORS
330
47
102
}
330
47
100
AcDbScale
 70
     0
300
1-1/2" = 1'-0"
140
1.5
141
12.0
290
     0
  0
SCALE
  5
66
102
{ACAD_REACTORS
330
47
102
}
330
47
100
AcDbScale
 70
     0
300
3" = 1'-0"
140
3.0
141
12.0
290
     0
  0
SCALE
  5
67
102
{ACAD_REACTORS
330
47
102
}
330
47
100
AcDbScale
 70
     0
300
6" = 1'-0"
140
6.0
141
12.0
290
     0
  0
SCALE
  5
68
102
{ACAD_REACTORS
330
47
102
}
330
47
100
AcDbScale
 70
     0
300
1'-0" = 1'-0"
140
12.0
141
12.0
290
     0
  0
ENDSEC
  0
EOF
